  0
SECTION
  2
HEADER
  9
$ACADVER
  1
AC1021
  9
$ACADMAINTVER
 70
    25
  9
$DWGCODEPAGE
  3
ANSI_936
  9
$LASTSAVEDBY
  1
Administrator
  9
$INSBASE
 10
0.0
 20
0.0
 30
0.0
  9
$EXTMIN
 10
34.40992804052203
 20
16.45022429610714
 30
0.0
  9
$EXTMAX
 10
11362.97928259958
 20
11196.42654487276
 30
0.0
  9
$LIMMIN
 10
0.0
 20
0.0
  9
$LIMMAX
 10
12.0
 20
9.0
  9
$ORTHOMODE
 70
     0
  9
$REGENMODE
 70
     1
  9
$FILLMODE
 70
     1
  9
$QTEXTMODE
 70
     0
  9
$MIRRTEXT
 70
     0
  9
$LTSCALE
 40
1.0
  9
$ATTMODE
 70
     1
  9
$TEXTSIZE
 40
0.2
  9
$TRACEWID
 40
0.05
  9
$TEXTSTYLE
  7
Standard
  9
$CLAYER
  8
0
  9
$CELTYPE
  6
ByLayer
  9
$CECOLOR
 62
   256
  9
$CELTSCALE
 40
1.0
  9
$DISPSILH
 70
     0
  9
$DIMSCALE
 40
1.0
  9
$DIMASZ
 40
0.18
  9
$DIMEXO
 40
0.0625
  9
$DIMDLI
 40
0.38
  9
$DIMRND
 40
0.0
  9
$DIMDLE
 40
0.0
  9
$DIMEXE
 40
0.18
  9
$DIMTP
 40
0.0
  9
$DIMTM
 40
0.0
  9
$DIMTXT
 40
0.18
  9
$DIMCEN
 40
0.09
  9
$DIMTSZ
 40
0.0
  9
$DIMTOL
 70
     0
  9
$DIMLIM
 70
     0
  9
$DIMTIH
 70
     1
  9
$DIMTOH
 70
     1
  9
$DIMSE1
 70
     0
  9
$DIMSE2
 70
     0
  9
$DIMTAD
 70
     0
  9
$DIMZIN
 70
     0
  9
$DIMBLK
  1

  9
$DIMASO
 70
     1
  9
$DIMSHO
 70
     1
  9
$DIMPOST
  1

  9
$DIMAPOST
  1

  9
$DIMALT
 70
     0
  9
$DIMALTD
 70
     2
  9
$DIMALTF
 40
25.4
  9
$DIMLFAC
 40
1.0
  9
$DIMTOFL
 70
     0
  9
$DIMTVP
 40
0.0
  9
$DIMTIX
 70
     0
  9
$DIMSOXD
 70
     0
  9
$DIMSAH
 70
     0
  9
$DIMBLK1
  1

  9
$DIMBLK2
  1

  9
$DIMSTYLE
  2
Standard
  9
$DIMCLRD
 70
     0
  9
$DIMCLRE
 70
     0
  9
$DIMCLRT
 70
     0
  9
$DIMTFAC
 40
1.0
  9
$DIMGAP
 40
0.09
  9
$DIMJUST
 70
     0
  9
$DIMSD1
 70
     0
  9
$DIMSD2
 70
     0
  9
$DIMTOLJ
 70
     1
  9
$DIMTZIN
 70
     0
  9
$DIMALTZ
 70
     0
  9
$DIMALTTZ
 70
     0
  9
$DIMUPT
 70
     0
  9
$DIMDEC
 70
     4
  9
$DIMTDEC
 70
     4
  9
$DIMALTU
 70
     2
  9
$DIMALTTD
 70
     2
  9
$DIMTXSTY
  7
Standard
  9
$DIMAUNIT
 70
     0
  9
$DIMADEC
 70
     0
  9
$DIMALTRND
 40
0.0
  9
$DIMAZIN
 70
     0
  9
$DIMDSEP
 70
    46
  9
$DIMATFIT
 70
     3
  9
$DIMFRAC
 70
     0
  9
$DIMLDRBLK
  1

  9
$DIMLUNIT
 70
     2
  9
$DIMLWD
 70
    -2
  9
$DIMLWE
 70
    -2
  9
$DIMTMOVE
 70
     0
  9
$DIMFXL
 40
1.0
  9
$DIMFXLON
 70
     0
  9
$DIMJOGANG
 40
0.7853981633974483
  9
$DIMTFILL
 70
     0
  9
$DIMTFILLCLR
 70
     0
  9
$DIMARCSYM
 70
     0
  9
$DIMLTYPE
  6

  9
$DIMLTEX1
  6

  9
$DIMLTEX2
  6

  9
$LUNITS
 70
     2
  9
$LUPREC
 70
     4
  9
$SKETCHINC
 40
0.1
  9
$FILLETRAD
 40
0.0
  9
$AUNITS
 70
     0
  9
$AUPREC
 70
     0
  9
$MENU
  1
.
  9
$ELEVATION
 40
0.0
  9
$PELEVATION
 40
0.0
  9
$THICKNESS
 40
0.0
  9
$LIMCHECK
 70
     0
  9
$CHAMFERA
 40
0.0
  9
$CHAMFERB
 40
0.0
  9
$CHAMFERC
 40
0.0
  9
$CHAMFERD
 40
0.0
  9
$SKPOLY
 70
     0
  9
$TDCREATE
 40
2457683.112495255
  9
$TDUCREATE
 40
2457682.779161921
  9
$TDUPDATE
 40
2457683.121818460
  9
$TDUUPDATE
 40
2457682.788485128
  9
$TDINDWG
 40
0.0084449074
  9
$TDUSRTIMER
 40
0.0084448611
  9
$USRTIMER
 70
     1
  9
$ANGBASE
 50
0.0
  9
$ANGDIR
 70
     0
  9
$PDMODE
 70
     0
  9
$PDSIZE
 40
0.0
  9
$PLINEWID
 40
0.0
  9
$SPLFRAME
 70
     0
  9
$SPLINETYPE
 70
     6
  9
$SPLINESEGS
 70
     8
  9
$HANDSEED
  5
FF2
  9
$SURFTAB1
 70
     6
  9
$SURFTAB2
 70
     6
  9
$SURFTYPE
 70
     6
  9
$SURFU
 70
     6
  9
$SURFV
 70
     6
  9
$UCSBASE
  2

  9
$UCSNAME
  2

  9
$UCSORG
 10
0.0
 20
0.0
 30
0.0
  9
$UCSXDIR
 10
1.0
 20
0.0
 30
0.0
  9
$UCSYDIR
 10
0.0
 20
1.0
 30
0.0
  9
$UCSORTHOREF
  2

  9
$UCSORTHOVIEW
 70
     0
  9
$UCSORGTOP
 10
0.0
 20
0.0
 30
0.0
  9
$UCSORGBOTTOM
 10
0.0
 20
0.0
 30
0.0
  9
$UCSORGLEFT
 10
0.0
 20
0.0
 30
0.0
  9
$UCSORGRIGHT
 10
0.0
 20
0.0
 30
0.0
  9
$UCSORGFRONT
 10
0.0
 20
0.0
 30
0.0
  9
$UCSORGBACK
 10
0.0
 20
0.0
 30
0.0
  9
$PUCSBASE
  2

  9
$PUCSNAME
  2

  9
$PUCSORG
 10
0.0
 20
0.0
 30
0.0
  9
$PUCSXDIR
 10
1.0
 20
0.0
 30
0.0
  9
$PUCSYDIR
 10
0.0
 20
1.0
 30
0.0
  9
$PUCSORTHOREF
  2

  9
$PUCSORTHOVIEW
 70
     0
  9
$PUCSORGTOP
 10
0.0
 20
0.0
 30
0.0
  9
$PUCSORGBOTTOM
 10
0.0
 20
0.0
 30
0.0
  9
$PUCSORGLEFT
 10
0.0
 20
0.0
 30
0.0
  9
$PUCSORGRIGHT
 10
0.0
 20
0.0
 30
0.0
  9
$PUCSORGFRONT
 10
0.0
 20
0.0
 30
0.0
  9
$PUCSORGBACK
 10
0.0
 20
0.0
 30
0.0
  9
$USERI1
 70
     0
  9
$USERI2
 70
     0
  9
$USERI3
 70
     0
  9
$USERI4
 70
     0
  9
$USERI5
 70
     0
  9
$USERR1
 40
0.0
  9
$USERR2
 40
0.0
  9
$USERR3
 40
0.0
  9
$USERR4
 40
0.0
  9
$USERR5
 40
0.0
  9
$WORLDVIEW
 70
     1
  9
$SHADEDGE
 70
     3
  9
$SHADEDIF
 70
    70
  9
$TILEMODE
 70
     1
  9
$MAXACTVP
 70
    64
  9
$PINSBASE
 10
0.0
 20
0.0
 30
0.0
  9
$PLIMCHECK
 70
     0
  9
$PEXTMIN
 10
0.0
 20
0.0
 30
0.0
  9
$PEXTMAX
 10
0.0
 20
0.0
 30
0.0
  9
$PLIMMIN
 10
0.0
 20
0.0
  9
$PLIMMAX
 10
12.0
 20
9.0
  9
$UNITMODE
 70
     0
  9
$VISRETAIN
 70
     1
  9
$PLINEGEN
 70
     0
  9
$PSLTSCALE
 70
     1
  9
$TREEDEPTH
 70
  3020
  9
$CMLSTYLE
  2
Standard
  9
$CMLJUST
 70
     0
  9
$CMLSCALE
 40
1.0
  9
$PROXYGRAPHICS
 70
     1
  9
$MEASUREMENT
 70
     0
  9
$CELWEIGHT
370
    -1
  9
$ENDCAPS
280
     0
  9
$JOINSTYLE
280
     0
  9
$LWDISPLAY
290
     0
  9
$INSUNITS
 70
     1
  9
$HYPERLINKBASE
  1

  9
$STYLESHEET
  1

  9
$XEDIT
290
     1
  9
$CEPSNTYPE
380
     0
  9
$PSTYLEMODE
290
     0
  9
$FINGERPRINTGUID
  2
{0840F437-B328-4F2D-B990-02007243ECFE}
  9
$VERSIONGUID
  2
{059192C8-662E-4E60-BA4E-E01FD48A8061}
  9
$EXTNAMES
290
     1
  9
$PSVPSCALE
 40
0.0
  9
$OLESTARTUP
290
     0
  9
$SORTENTS
280
   127
  9
$INDEXCTL
280
     0
  9
$HIDETEXT
280
     1
  9
$XCLIPFRAME
290
     0
  9
$HALOGAP
280
     0
  9
$OBSCOLOR
 70
   257
  9
$OBSLTYPE
280
     0
  9
$INTERSECTIONDISPLAY
280
     0
  9
$INTERSECTIONCOLOR
 70
   257
  9
$DIMASSOC
280
     2
  9
$PROJECTNAME
  1

  9
$CAMERADISPLAY
290
     0
  9
$LENSLENGTH
 40
50.0
  9
$CAMERAHEIGHT
 40
60.0
  9
$STEPSPERSEC
 40
2.0
  9
$STEPSIZE
 40
6.0
  9
$3DDWFPREC
 40
2.0
  9
$PSOLWIDTH
 40
0.25
  9
$PSOLHEIGHT
 40
4.0
  9
$LOFTANG1
 40
1.570796326794896
  9
$LOFTANG2
 40
1.570796326794896
  9
$LOFTMAG1
 40
0.0
  9
$LOFTMAG2
 40
0.0
  9
$LOFTPARAM
 70
     7
  9
$LOFTNORMALS
280
     1
  9
$LATITUDE
 40
37.795
  9
$LONGITUDE
 40
-122.394
  9
$NORTHDIRECTION
 40
0.0
  9
$TIMEZONE
 70
 -8000
  9
$LIGHTGLYPHDISPLAY
280
     1
  9
$TILEMODELIGHTSYNCH
280
     1
  9
$CMATERIAL
347
92
  9
$SOLIDHIST
280
     1
  9
$SHOWHIST
280
     1
  9
$DWFFRAME
280
     2
  9
$DGNFRAME
280
     0
  9
$REALWORLDSCALE
290
     1
  9
$INTERFERECOLOR
 62
     1
  9
$INTERFEREOBJVS
345
9F
  9
$INTERFEREVPVS
346
9C
  9
$CSHADOW
280
     0
  9
$SHADOWPLANELOCATION
 40
0.0
  0
ENDSEC
  0
SECTION
  2
CLASSES
  0
CLASS
  1
ACDBDICTIONARYWDFLT
  2
AcDbDictionaryWithDefault
  3
ObjectDBX Classes
 90
        0
 91
        1
280
     0
281
     0
  0
CLASS
  1
DICTIONARYVAR
  2
AcDbDictionaryVar
  3
ObjectDBX Classes
 90
        0
 91
        5
280
     0
281
     0
  0
CLASS
  1
MATERIAL
  2
AcDbMaterial
  3
ObjectDBX Classes
 90
     1153
 91
        3
280
     0
281
     0
  0
CLASS
  1
VISUALSTYLE
  2
AcDbVisualStyle
  3
ObjectDBX Classes
 90
     4095
 91
       16
280
     0
281
     0
  0
CLASS
  1
TABLESTYLE
  2
AcDbTableStyle
  3
ObjectDBX Classes
 90
     4095
 91
        1
280
     0
281
     0
  0
CLASS
  1
SCALE
  2
AcDbScale
  3
ObjectDBX Classes
 90
     1153
 91
       33
280
     0
281
     0
  0
CLASS
  1
MLEADERSTYLE
  2
AcDbMLeaderStyle
  3
ACDB_MLEADERSTYLE_CLASS
 90
     4095
 91
        2
280
     0
281
     0
  0
CLASS
  1
CELLSTYLEMAP
  2
AcDbCellStyleMap
  3
ObjectDBX Classes
 90
     1152
 91
        4
280
     0
281
     0
  0
CLASS
  1
SORTENTSTABLE
  2
AcDbSortentsTable
  3
ObjectDBX Classes
 90
        0
 91
        0
280
     0
281
     0
  0
ENDSEC
  0
SECTION
  2
TABLES
  0
TABLE
  2
VPORT
  5
8
330
0
100
AcDbSymbolTable
 70
     1
  0
VPORT
  5
90
330
8
100
AcDbSymbolTableRecord
100
AcDbViewportTableRecord
  2
*Active
 70
     0
 10
0.0
 20
0.0
 11
1.0
 21
1.0
 12
47817.22272618133
 22
573.8107892260414
 13
0.0
 23
0.0
 14
0.5
 24
0.5
 15
0.5
 25
0.5
 16
0.0
 26
0.0
 36
1.0
 17
0.0
 27
0.0
 37
0.0
 40
60356.92315924679
 41
1.768172888015716
 42
50.0
 43
0.0
 44
0.0
 50
0.0
 51
0.0
 71
     0
 72
  1000
 73
     1
 74
     3
 75
     0
 76
     0
 77
     0
 78
     0
281
     0
 65
     1
110
0.0
120
0.0
130
0.0
111
1.0
121
0.0
131
0.0
112
0.0
122
1.0
132
0.0
 79
     0
146
0.0
348
9B
 60
     2
 61
     5
292
     1
282
     1
141
0.0
142
0.0
 63
   250
421
  3355443
  0
ENDTAB
  0
TABLE
  2
LTYPE
  5
5
330
0
100
AcDbSymbolTable
 70
     2
  0
LTYPE
  5
14
330
5
100
AcDbSymbolTableRecord
100
AcDbLinetypeTableRecord
  2
ByBlock
 70
     0
  3

 72
    65
 73
     0
 40
0.0
  0
LTYPE
  5
15
330
5
100
AcDbSymbolTableRecord
100
AcDbLinetypeTableRecord
  2
ByLayer
 70
     0
  3

 72
    65
 73
     0
 40
0.0
  0
LTYPE
  5
16
330
5
100
AcDbSymbolTableRecord
100
AcDbLinetypeTableRecord
  2
Continuous
 70
     0
  3
Solid line
 72
    65
 73
     0
 40
0.0
  0
ENDTAB
  0
TABLE
  2
LAYER
  5
2
102
{ACAD_XDICTIONARY
360
155
102
}
330
0
100
AcDbSymbolTable
 70
     3
  0
LAYER
  5
10
102
{ACAD_XDICTIONARY
360
E1
102
}
330
2
100
AcDbSymbolTableRecord
100
AcDbLayerTableRecord
  2
0
 70
     0
 62
     7
  6
Continuous
370
    -3
390
F
347
94
  0
LAYER
  5
14D
102
{ACAD_XDICTIONARY
360
14E
102
}
330
2
100
AcDbSymbolTableRecord
100
AcDbLayerTableRecord
  2
图层1
 70
     0
 62
     1
  6
Continuous
370
    -3
390
F
347
94
1001
AcAecLayerStandard
1000

1000

  0
LAYER
  5
14F
102
{ACAD_XDICTIONARY
360
FDF
102
}
330
2
100
AcDbSymbolTableRecord
100
AcDbLayerTableRecord
  2
NEW 12.7
 70
     0
 62
     1
  6
Continuous
370
    -3
390
F
347
94
1001
AcAecLayerStandard
1000

1000

1001
AcCmTransparency
1071
        0
  0
ENDTAB
  0
TABLE
  2
STYLE
  5
3
330
0
100
AcDbSymbolTable
 70
     2
  0
STYLE
  5
11
330
3
100
AcDbSymbolTableRecord
100
AcDbTextStyleTableRecord
  2
Standard
 70
     0
 40
0.0
 41
1.0
 50
0.0
 71
     0
 42
0.2
  3
txt
  4
gbcbig.shx
  0
STYLE
  5
D7
330
3
100
AcDbSymbolTableRecord
100
AcDbTextStyleTableRecord
  2
Annotative
 70
     0
 40
0.0
 41
1.0
 50
0.0
 71
     0
 42
0.2
  3
txt.shx
  4
gbcbig.shx
1001
AcadAnnotative
1000
AnnotativeData
1002
{
1070
     1
1070
     1
1002
}
  0
ENDTAB
  0
TABLE
  2
VIEW
  5
6
330
0
100
AcDbSymbolTable
 70
     0
  0
ENDTAB
  0
TABLE
  2
UCS
  5
7
330
0
100
AcDbSymbolTable
 70
     0
  0
ENDTAB
  0
TABLE
  2
APPID
  5
9
330
0
100
AcDbSymbolTable
 70
    11
  0
APPID
  5
12
330
9
100
AcDbSymbolTableRecord
100
AcDbRegAppTableRecord
  2
ACAD
 70
     0
  0
APPID
  5
D8
330
9
100
AcDbSymbolTableRecord
100
AcDbRegAppTableRecord
  2
AcadAnnoPO
 70
     0
  0
APPID
  5
D9
330
9
100
AcDbSymbolTableRecord
100
AcDbRegAppTableRecord
  2
AcadAnnotative
 70
     0
  0
APPID
  5
DA
330
9
100
AcDbSymbolTableRecord
100
AcDbRegAppTableRecord
  2
ACAD_DSTYLE_DIMJAG
 70
     0
  0
APPID
  5
DB
330
9
100
AcDbSymbolTableRecord
100
AcDbRegAppTableRecord
  2
ACAD_DSTYLE_DIMTALN
 70
     0
  0
APPID
  5
102
330
9
100
AcDbSymbolTableRecord
100
AcDbRegAppTableRecord
  2
ACAD_MLEADERVER
 70
     0
  0
APPID
  5
151
330
9
100
AcDbSymbolTableRecord
100
AcDbRegAppTableRecord
  2
ACAD_PSEXT
 70
     0
  0
APPID
  5
152
330
9
100
AcDbSymbolTableRecord
100
AcDbRegAppTableRecord
  2
AcAecLayerStandard
 70
     0
  0
APPID
  5
153
330
9
100
AcDbSymbolTableRecord
100
AcDbRegAppTableRecord
  2
ACAD_NAV_VCDISPLAY
 70
     0
  0
APPID
  5
154
330
9
100
AcDbSymbolTableRecord
100
AcDbRegAppTableRecord
  2
AcCmTransparency
 70
     0
  0
APPID
  5
FEA
330
9
100
AcDbSymbolTableRecord
100
AcDbRegAppTableRecord
  2
ACAD_EXEMPT_FROM_CAD_STANDARDS
 70
     0
  0
ENDTAB
  0
TABLE
  2
DIMSTYLE
  5
A
330
0
100
AcDbSymbolTable
 70
     4
100
AcDbDimStyleTable
 71
     2
340
27
340
DC
  0
DIMSTYLE
105
27
330
A
100
AcDbSymbolTableRecord
100
AcDbDimStyleTableRecord
  2
Standard
 70
     0
340
11
  0
DIMSTYLE
105
DC
330
A
100
AcDbSymbolTableRecord
100
AcDbDimStyleTableRecord
  2
Annotative
 70
     0
 40
0.0
340
11
1001
AcadAnnotative
1000
AnnotativeData
1002
{
1070
     1
1070
     1
1002
}
1001
ACAD_DSTYLE_DIMJAG
1070
   388
1040
1.5
1001
ACAD_DSTYLE_DIMTALN
1070
   392
1070
     0
  0
DIMSTYLE
105
150
330
A
100
AcDbSymbolTableRecord
100
AcDbDimStyleTableRecord
  2
ISO-25
 70
     0
 41
2.5
 42
0.625
 43
3.75
 44
1.25
 73
     0
 74
     0
 77
     1
 78
     8
140
2.5
141
2.5
143
0.03937007874016
147
0.625
171
     3
172
     1
271
     2
272
     2
274
     3
278
    44
283
     0
284
     8
340
11
  0
ENDTAB
  0
TABLE
  2
BLOCK_RECORD
  5
1
330
0
100
AcDbSymbolTable
 70
     2
  0
BLOCK_RECORD
  5
1F
330
1
100
AcDbSymbolTableRecord
100
AcDbBlockTableRecord
  2
*Model_Space
340
22
 70
     0
280
     1
281
     0
  0
BLOCK_RECORD
  5
73
330
1
100
AcDbSymbolTableRecord
100
AcDbBlockTableRecord
  2
*Paper_Space
340
74
 70
     0
280
     1
281
     0
  0
BLOCK_RECORD
  5
78
330
1
100
AcDbSymbolTableRecord
100
AcDbBlockTableRecord
  2
*Paper_Space0
340
79
 70
     0
280
     1
281
     0
  0
ENDTAB
  0
ENDSEC
  0
SECTION
  2
BLOCKS
  0
BLOCK
  5
20
330
1F
100
AcDbEntity
  8
0
100
AcDbBlockBegin
  2
*Model_Space
 70
     0
 10
0.0
 20
0.0
 30
0.0
  3
*Model_Space
  1

  0
ENDBLK
  5
21
330
1F
100
AcDbEntity
  8
0
100
AcDbBlockEnd
  0
BLOCK
  5
75
330
73
100
AcDbEntity
 67
     1
  8
0
100
AcDbBlockBegin
  2
*Paper_Space
 70
     0
 10
0.0
 20
0.0
 30
0.0
  3
*Paper_Space
  1

  0
ENDBLK
  5
76
330
73
100
AcDbEntity
 67
     1
  8
0
100
AcDbBlockEnd
  0
BLOCK
  5
7A
330
78
100
AcDbEntity
 67
     1
  8
0
100
AcDbBlockBegin
  2
*Paper_Space0
 70
     0
 10
0.0
 20
0.0
 30
0.0
  3
*Paper_Space0
  1

  0
ENDBLK
  5
7B
330
78
100
AcDbEntity
 67
     1
  8
0
100
AcDbBlockEnd
  0
ENDSEC
  0
SECTION
  2
ENTITIES
  0
LINE
  5
89F
330
1F
100
AcDbEntity
  8
图层1
100
AcDbLine
 10
6432.286557042506
 20
10504.71002882603
 30
0.0
 11
7005.122151159217
 21
9408.723576494557
 31
0.0
  0
LINE
  5
8A0
330
1F
100
AcDbEntity
  8
图层1
100
AcDbLine
 10
6956.883324808966
 20
9577.336896952829
 30
0.0
 11
6968.943031396543
 21
8896.861732592244
 31
0.0
  0
LINE
  5
8A1
330
1F
100
AcDbEntity
  8
图层1
100
AcDbLine
 10
6944.823618221331
 20
9161.825521883793
 30
0.0
 11
7240.286195220426
 21
8372.956123634843
 31
0.0
  0
LINE
  5
8A2
330
1F
100
AcDbEntity
  8
图层1
100
AcDbLine
 10
8434.379507968495
 20
9317.281700982062
 30
0.0
 11
7059.574363364257
 21
8365.820951900538
 31
0.0
  0
LINE
  5
8A3
330
1F
100
AcDbEntity
  8
图层1
100
AcDbLine
 10
7113.843043008355
 20
8594.653358928704
 30
0.0
 11
8096.707957912878
 21
7799.762078152203
 31
0.0
  0
LINE
  5
8A4
330
1F
100
AcDbEntity
  8
图层1
100
AcDbLine
 10
8595.788457444871
 20
8279.30429873766
 30
0.0
 11
7397.622120010144
 21
7556.899718690522
 31
0.0
  0
LINE
  5
8A5
330
1F
100
AcDbEntity
  8
图层1
100
AcDbLine
 10
8332.808416508896
 20
9436.568523001193
 30
0.0
 11
10763.96650729736
 21
5704.886073906227
 31
0.0
  0
LINE
  5
8A6
330
1F
100
AcDbEntity
  8
图层1
100
AcDbLine
 10
8465.907495412162
 20
8248.887261981151
 30
0.0
 11
9822.623314531639
 21
8345.23773081444
 31
0.0
  0
LINE
  5
8A7
330
1F
100
AcDbEntity
  8
图层1
100
AcDbLine
 10
8559.590801877611
 20
10056.46732470855
 30
0.0
 11
8037.111887457724
 21
9496.486160979117
 31
0.0
  0
LINE
  5
8A8
330
1F
100
AcDbEntity
  8
图层1
100
AcDbLine
 10
6595.840555619507
 20
8939.419742723773
 30
0.0
 11
8114.91932649899
 21
9546.47291123968
 31
0.0
  0
LINE
  5
8A9
330
1F
100
AcDbEntity
  8
图层1
100
AcDbLine
 10
6013.22625020519
 20
8986.032390264362
 30
0.0
 11
6763.955912606617
 21
8974.76689278425
 31
0.0
  0
LINE
  5
8AA
330
1F
100
AcDbEntity
  8
图层1
100
AcDbLine
 10
4918.822679879959
 20
8571.29936986845
 30
0.0
 11
6105.80728349957
 21
9004.536618384539
 31
0.0
  0
LINE
  5
8AB
330
1F
100
AcDbEntity
  8
图层1
100
AcDbLine
 10
5229.481872838166
 20
9637.228394124765
 30
0.0
 11
5804.866551021697
 21
9107.299260837569
 31
0.0
  0
LINE
  5
8AC
330
1F
100
AcDbEntity
  8
图层1
100
AcDbLine
 10
5660.150306367374
 20
9281.934463823366
 30
0.0
 11
6058.120154964273
 21
8613.503151616029
 31
0.0
  0
LINE
  5
8AD
330
1F
100
AcDbEntity
  8
图层1
100
AcDbLine
 10
5599.851773429488
 20
9209.671612198397
 30
0.0
 11
6769.642140441518
 21
10034.67239271074
 31
0.0
  0
LINE
  5
8AE
330
1F
100
AcDbEntity
  8
图层1
100
AcDbLine
 10
5099.374418838183
 20
10420.07426804396
 30
0.0
 11
6293.284199025425
 21
9619.161104739911
 31
0.0
  0
LINE
  5
8AF
330
1F
100
AcDbEntity
  8
图层1
100
AcDbLine
 10
6172.687367546257
 20
9745.621073309061
 30
0.0
 11
6456.090237957717
 21
9257.846846615029
 31
0.0
  0
LINE
  5
8B0
330
1F
100
AcDbEntity
  8
图层1
100
AcDbLine
 10
6914.358619492444
 20
9667.336252058353
 30
0.0
 11
6341.523025375733
 21
9287.956346350902
 31
0.0
  0
LINE
  5
8B1
330
1F
100
AcDbEntity
  8
图层1
100
AcDbLine
 10
6395.791705019831
 20
9408.394432392546
 30
0.0
 11
6419.911118194986
 21
8276.276597797687
 31
0.0
  0
LINE
  5
8B2
330
1F
100
AcDbEntity
  8
图层1
100
AcDbLine
 10
6353.58273196331
 20
8824.26982396341
 30
0.0
 11
6697.284135312717
 21
8794.160324227565
 31
0.0
  0
LINE
  5
8B3
330
1F
100
AcDbEntity
  8
图层1
100
AcDbLine
 10
6504.328829911422
 20
8800.182206755087
 30
0.0
 11
7119.373397084711
 21
8866.423088754329
 31
0.0
  0
LINE
  5
8B4
330
1F
100
AcDbEntity
  8
图层1
100
AcDbLine
 10
6872.149646435982
 20
8866.423088754329
 30
0.0
 11
7022.895744384093
 21
8468.977535464283
 31
0.0
  0
LINE
  5
8B5
330
1F
100
AcDbEntity
  8
图层1
100
AcDbLine
 10
6944.507885961446
 20
8529.196534935973
 30
0.0
 11
7258.059788445244
 21
8499.087035200142
 31
0.0
  0
LINE
  5
8B6
330
1F
100
AcDbEntity
  8
图层1
100
AcDbLine
 10
7457.044712743665
 20
9348.175432920809
 30
0.0
 11
7794.716262799223
 21
8800.182206755087
 31
0.0
  0
LINE
  5
8B7
330
1F
100
AcDbEntity
  8
图层1
100
AcDbLine
 10
6932.448179373868
 20
9426.460167073315
 30
0.0
 11
7836.925235855801
 21
9944.343893503209
 31
0.0
  0
LINE
  5
8B8
330
1F
100
AcDbEntity
  8
图层1
100
AcDbLine
 10
7674.119431320113
 20
10245.43906505814
 30
0.0
 11
7812.805822680589
 21
9872.08104187821
 31
0.0
  0
LINE
  5
8B9
330
1F
100
AcDbEntity
  8
图层1
100
AcDbLine
 10
7752.507289742702
 20
9944.343893503209
 30
0.0
 11
8138.417666148628
 21
9546.898253114958
 31
0.0
  0
LINE
  5
8BA
330
1F
100
AcDbEntity
  8
图层1
100
AcDbLine
 10
7324.388174676919
 20
10299.63618200232
 30
0.0
 11
7613.820898382169
 21
9697.445838892416
 31
0.0
  0
LINE
  5
8BB
330
1F
100
AcDbEntity
  8
图层1
100
AcDbLine
 10
7143.492810259806
 20
10221.35144784982
 30
0.0
 11
6606.836335905828
 21
9938.321923877452
 31
0.0
  0
LINE
  5
8BC
330
1F
100
AcDbEntity
  8
图层1
100
AcDbLine
 10
7348.507587852075
 20
9619.161104739911
 30
0.0
 11
7071.134570734344
 21
10257.4828301132
 31
0.0
  0
LINE
  5
8BD
330
1F
100
AcDbEntity
  8
图层1
100
AcDbLine
 10
7457.044712743665
 20
10094.89147928068
 30
0.0
 11
6962.597211446149
 21
9811.861955308318
 31
0.0
  0
LINE
  5
8BE
330
1F
100
AcDbEntity
  8
图层1
100
AcDbLine
 10
6920.388472786291
 20
10016.60665802996
 30
0.0
 11
7053.045010853036
 21
9745.621073309061
 31
0.0
  0
LINE
  5
8BF
330
1F
100
AcDbEntity
  8
图层1
100
AcDbLine
 10
6757.582433853939
 20
9775.730573044937
 30
0.0
 11
7083.194277321979
 21
9950.365776030716
 31
0.0
  0
LINE
  5
8C0
330
1F
100
AcDbEntity
  8
图层1
100
AcDbLine
 10
6835.970526673192
 20
9649.270604475741
 30
0.0
 11
7028.925597677823
 21
9739.59910368335
 31
0.0
  0
LINE
  5
8C1
330
1F
100
AcDbEntity
  8
图层1
100
AcDbLine
 10
6956.567592549022
 20
9721.533456100738
 30
0.0
 11
7137.462956966077
 21
9733.577221155798
 31
0.0
  0
LINE
  5
8C2
330
1F
100
AcDbEntity
  8
图层1
100
AcDbLine
 10
7185.701783316385
 20
9817.883924934015
 30
0.0
 11
7047.015157559188
 21
9691.423869266676
 31
0.0
  0
LINE
  5
8C3
330
1F
100
AcDbEntity
  8
图层1
100
AcDbLine
 10
7095.253983909556
 20
9769.708690517383
 30
0.0
 11
7113.343543790922
 21
9619.161104739911
 31
0.0
  0
LINE
  5
8C4
330
1F
100
AcDbEntity
  8
图层1
100
AcDbLine
 10
7191.731636610175
 20
9546.898253114958
 30
0.0
 11
7083.194277321979
 21
9679.380104211602
 31
0.0
  0
LINE
  5
8C5
330
1F
100
AcDbEntity
  8
图层1
100
AcDbLine
 10
7191.731636610175
 20
9968.431510711532
 30
0.0
 11
7155.552516847443
 21
9757.664838364135
 31
0.0
  0
LINE
  5
8C6
330
1F
100
AcDbEntity
  8
图层1
100
AcDbLine
 10
7185.701783316385
 20
9835.949572516625
 30
0.0
 11
7010.836037796457
 21
9769.708690517383
 31
0.0
  0
LINE
  5
8C7
330
1F
100
AcDbEntity
  8
图层1
100
AcDbLine
 10
7022.895744384093
 20
9890.146689460822
 30
0.0
 11
7107.313690497133
 21
10034.67239271074
 31
0.0
  0
LINE
  5
8C8
330
1F
100
AcDbEntity
  8
图层1
100
AcDbLine
 10
7059.074864146767
 20
9986.497158294099
 30
0.0
 11
7191.731636610175
 21
10046.71624486403
 31
0.0
  0
LINE
  5
8C9
330
1F
100
AcDbEntity
  8
图层1
100
AcDbLine
 10
6926.418326080079
 20
10143.06671369731
 30
0.0
 11
6938.478032667656
 21
9944.343893503209
 31
0.0
  0
LINE
  5
8CA
330
1F
100
AcDbEntity
  8
图层1
100
AcDbLine
 10
6811.855801430649
 20
10126.2786225288
 30
0.0
 11
6835.975214605802
 21
9993.796771432119
 31
0.0
  0
LINE
  5
8CB
330
1F
100
AcDbEntity
  8
图层1
100
AcDbLine
 10
4273.087155626971
 20
11028.98136312994
 30
0.0
 11
5363.956646280888
 21
9479.22547668922
 31
0.0
  0
LINE
  5
8CC
330
1F
100
AcDbEntity
  8
图层1
100
AcDbLine
 10
4841.568363557628
 20
10594.23138900378
 30
0.0
 11
3986.285768484466
 21
9975.351985380044
 31
0.0
  0
LINE
  5
8CD
330
1F
100
AcDbEntity
  8
图层1
100
AcDbLine
 10
5343.47084965621
 20
10609.57547909582
 30
0.0
 11
5061.790794471571
 21
9827.025490829406
 31
0.0
  0
LINE
  5
8CE
330
1F
100
AcDbEntity
  8
图层1
100
AcDbLine
 10
5620.029338486435
 20
10757.90197364644
 30
0.0
 11
5317.86348667706
 21
9965.122562952622
 31
0.0
  0
LINE
  5
8CF
330
1F
100
AcDbEntity
  8
图层1
100
AcDbLine
 10
5850.494667712716
 20
10246.43137486354
 30
0.0
 11
5645.636467068981
 21
9893.516693058721
 31
0.0
  0
LINE
  5
8D0
330
1F
100
AcDbEntity
  8
图层1
100
AcDbLine
 10
5338.349283301738
 20
10072.53136779346
 30
0.0
 11
5317.86348667706
 21
9750.304953270918
 31
0.0
  0
LINE
  5
8D1
330
1F
100
AcDbEntity
  8
图层1
100
AcDbLine
 10
5343.47084965621
 20
9837.254913256888
 30
0.0
 11
5200.070038886625
 21
9673.584328614197
 31
0.0
  0
LINE
  5
8D2
330
1F
100
AcDbEntity
  8
图层1
100
AcDbLine
 10
5804.401508108772
 20
9786.107888217891
 30
0.0
 11
6106.567359918147
 21
10420.33138193365
 31
0.0
  0
LINE
  5
8D3
330
1F
100
AcDbEntity
  8
图层1
100
AcDbLine
 10
5271.454594813172
 20
9370.699289026166
 30
0.0
 11
5880.907630389849
 21
9882.169800710855
 31
0.0
  0
LINE
  5
8D4
330
1F
100
AcDbEntity
  8
图层1
100
AcDbLine
 10
5153.661147022795
 20
9068.931632260303
 30
0.0
 11
5353.398015708606
 21
9467.878671439544
 31
0.0
  0
LINE
  5
8D5
330
1F
100
AcDbEntity
  8
图层1
100
AcDbLine
 10
5189.511408314342
 20
9232.602216902995
 30
0.0
 11
5095.264508336608
 21
8276.607135470948
 31
0.0
  0
LINE
  5
8D6
330
1F
100
AcDbEntity
  8
图层1
100
AcDbLine
 10
4421.293566094537
 20
9145.652169818822
 30
0.0
 11
5240.725899876096
 21
9114.963989634699
 31
0.0
  0
LINE
  5
8D7
330
1F
100
AcDbEntity
  8
图层1
100
AcDbLine
 10
4851.495529610082
 20
9493.45218395905
 30
0.0
 11
4810.52393636061
 21
8521.658098530481
 31
0.0
  0
LINE
  5
8D8
330
1F
100
AcDbEntity
  8
图层1
100
AcDbLine
 10
4236.921162075538
 20
9519.025696478571
 30
0.0
 11
5117.811120127853
 21
9380.928711453604
 31
0.0
  0
LINE
  5
8D9
330
1F
100
AcDbEntity
  8
图层1
100
AcDbLine
 10
5005.139004295344
 20
9421.846314065163
 30
0.0
 11
5491.677025727113
 21
9089.390477115221
 31
0.0
  0
LINE
  5
8DA
330
1F
100
AcDbEntity
  8
图层1
100
AcDbLine
 10
5389.248042603548
 20
9176.340437101147
 30
0.0
 11
5763.114182599472
 21
8644.411080561569
 31
0.0
  0
LINE
  5
8DB
330
1F
100
AcDbEntity
  8
图层1
100
AcDbLine
 10
5591.614841472359
 20
10113.06225439202
 30
0.0
 11
5498.18059460912
 21
9987.451057792837
 31
0.0
  0
LINE
  5
8DC
330
1F
100
AcDbEntity
  8
图层1
100
AcDbLine
 10
5480.212452181849
 20
10152.54003664079
 30
0.0
 11
5368.810062891281
 21
9991.039939170143
 31
0.0
  0
LINE
  5
8DD
330
1F
100
AcDbEntity
  8
图层1
100
AcDbLine
 10
5411.933651596076
 20
10091.52887902985
 30
0.0
 11
5544.897718040739
 21
9991.039939170143
 31
0.0
  0
LINE
  5
8DE
330
1F
100
AcDbEntity
  8
图层1
100
AcDbLine
 10
6403.774082237332
 20
10213.55119425174
 30
0.0
 11
6601.423414540885
 21
9854.662185537168
 31
0.0
  0
LINE
  5
8DF
330
1F
100
AcDbEntity
  8
图层1
100
AcDbLine
 10
6116.284037797363
 20
10080.76223489788
 30
0.0
 11
5947.383686498099
 21
9822.362166043056
 31
0.0
  0
LINE
  5
8E0
330
1F
100
AcDbEntity
  8
图层1
100
AcDbLine
 10
6145.033018801654
 20
10113.06225439202
 30
0.0
 11
6698.451196130948
 21
9574.728741320191
 31
0.0
  0
LINE
  5
8E3
330
1F
100
AcDbEntity
  8
图层1
100
AcDbLine
 10
6447.349118850602
 20
9739.508521554169
 30
0.0
 11
6217.357036419214
 21
9595.952918068338
 31
0.0
  0
LINE
  5
8E4
330
1F
100
AcDbEntity
  8
图层1
100
AcDbLine
 10
5836.432979512611
 20
9664.141838433911
 30
0.0
 11
6095.173808551686
 21
9405.741769579099
 31
0.0
  0
LINE
  5
8E5
330
1F
100
AcDbEntity
  8
图层1
100
AcDbLine
 10
5886.743637670996
 20
9434.452907695861
 30
0.0
 11
6113.141950978898
 21
9366.26398733029
 31
0.0
  0
LINE
  5
8E6
330
1F
100
AcDbEntity
  8
图层1
100
AcDbLine
 10
6084.39296997455
 20
9455.986195959855
 30
0.0
 11
6061.661168574531
 21
8995.211695329874
 31
0.0
  0
LINE
  5
8E7
330
1F
100
AcDbEntity
  8
图层1
100
AcDbLine
 10
5962.209742106963
 20
9438.041789073212
 30
0.0
 11
5940.648064952927
 21
9197.586127104999
 31
0.0
  0
LINE
  5
8E8
330
1F
100
AcDbEntity
  8
图层1
100
AcDbLine
 10
5976.584349807527
 20
9229.886146599111
 30
0.0
 11
5814.871067961854
 21
9211.941739712498
 31
0.0
  0
LINE
  5
8E9
330
1F
100
AcDbEntity
  8
图层1
100
AcDbLine
 10
5825.65190653893
 20
9319.608442326867
 30
0.0
 11
5829.245675662359
 21
9183.230601595706
 31
0.0
  0
LINE
  5
8EA
330
1F
100
AcDbEntity
  8
图层1
100
AcDbLine
 10
5760.966875076587
 20
9359.086224575634
 30
0.0
 11
5847.21381808963
 21
9255.008403338614
 31
0.0
  0
LINE
  5
8EB
330
1F
100
AcDbEntity
  8
图层1
100
AcDbLine
 10
6034.082311816165
 20
9613.897412053155
 30
0.0
 11
5778.934783107311
 21
9430.864026318586
 31
0.0
  0
LINE
  5
8EC
330
1F
100
AcDbEntity
  8
图层1
100
AcDbLine
 10
5778.934783107311
 20
9556.475135819585
 30
0.0
 11
5847.21381808963
 21
9445.219551827866
 31
0.0
  0
LINE
  5
8ED
330
1F
100
AcDbEntity
  8
图层1
100
AcDbLine
 10
5757.373105953157
 20
9513.408472193425
 30
0.0
 11
5990.958723111312
 21
9700.030739305402
 31
0.0
  0
LINE
  5
8EE
330
1F
100
AcDbEntity
  8
图层1
100
AcDbLine
 10
5947.835134406517
 20
9696.441857928066
 30
0.0
 11
6034.082311816165
 21
9631.841818939783
 31
0.0
  0
LINE
  5
8EF
330
1F
100
AcDbEntity
  8
图层1
100
AcDbLine
 10
6012.520400265465
 20
9674.908569664118
 30
0.0
 11
6001.739561688388
 21
9563.652985672428
 31
0.0
  0
LINE
  5
8F0
330
1F
100
AcDbEntity
  8
图层1
100
AcDbLine
 10
6023.301473239088
 20
9430.864026318586
 30
0.0
 11
6202.982663115371
 21
9556.475135819585
 31
0.0
  0
LINE
  5
8F1
330
1F
100
AcDbEntity
  8
图层1
100
AcDbLine
 10
6174.233682111022
 20
9563.652985672428
 30
0.0
 11
6249.69978654699
 21
9459.575164435378
 31
0.0
  0
LINE
  5
8F2
330
1F
100
AcDbEntity
  8
图层1
100
AcDbLine
 10
6253.293321273814
 20
9516.997353570774
 30
0.0
 11
6062.831292820455
 21
9416.50841371106
 31
0.0
  0
LINE
  5
8F3
330
1F
100
AcDbEntity
  8
图层1
100
AcDbLine
 10
6648.734967824887
 20
9642.435137651546
 30
0.0
 11
6828.41615770117
 21
9330.201673940397
 31
0.0
  0
LINE
  5
8F4
330
1F
100
AcDbEntity
  8
图层1
100
AcDbLine
 10
6770.918195692532
 20
9355.323930679885
 30
0.0
 11
6997.316509000434
 21
9340.96840517059
 31
0.0
  0
LINE
  5
8F5
330
1F
100
AcDbEntity
  8
图层1
100
AcDbLine
 10
6929.037708414719
 20
9351.735049302551
 30
0.0
 11
7155.436021722564
 21
9276.368366182323
 31
0.0
  0
LINE
  5
8F6
330
1F
100
AcDbEntity
  8
图层1
100
AcDbLine
 10
7108.718898290885
 20
9574.246217285944
 30
0.0
 11
7270.431945739955
 21
9262.012753574824
 31
0.0
  0
LINE
  5
8F7
330
1F
100
AcDbEntity
  8
图层1
100
AcDbLine
 10
7277.619249590149
 20
9315.846148431118
 30
0.0
 11
7076.376148163167
 21
9283.546128936976
 31
0.0
  0
LINE
  5
8F8
330
1F
100
AcDbEntity
  8
图层1
100
AcDbLine
 10
6867.945977282595
 20
9366.090574811858
 30
0.0
 11
6810.448015273898
 21
9208.179445816719
 31
0.0
  0
LINE
  5
8F9
330
1F
100
AcDbEntity
  8
图层1
100
AcDbLine
 10
6849.977834855265
 20
9265.601634952172
 30
0.0
 11
6688.264787406254
 21
9125.634999941835
 31
0.0
  0
LINE
  5
8FA
330
1F
100
AcDbEntity
  8
图层1
100
AcDbLine
 10
6792.479872846627
 20
9337.379436695051
 30
0.0
 11
6911.069565987389
 21
9401.979475683305
 31
0.0
  0
LINE
  5
8FB
330
1F
100
AcDbEntity
  8
图层1
100
AcDbLine
 10
6760.137357115455
 20
9384.035068796691
 30
0.0
 11
6889.50765443669
 21
9484.524008656419
 31
0.0
  0
LINE
  5
8FC
330
1F
100
AcDbEntity
  8
图层1
100
AcDbLine
 10
6792.479872846627
 20
9602.95735540275
 30
0.0
 11
6885.914119709808
 21
9430.690613800113
 31
0.0
  0
LINE
  5
8FD
330
1F
100
AcDbEntity
  8
图层1
100
AcDbLine
 10
6508.58359753003
 20
9549.123960546486
 30
0.0
 11
6573.268863388978
 21
9409.157238437961
 31
0.0
  0
LINE
  5
8FE
330
1F
100
AcDbEntity
  8
图层1
100
AcDbLine
 10
6623.579521547364
 20
9843.413017370963
 30
0.0
 11
6749.356284141774
 21
9724.97958352643
 31
0.0
  0
LINE
  5
8FF
330
1F
100
AcDbEntity
  8
图层1
100
AcDbLine
 10
6699.04562598333
 20
9785.990741137334
 30
0.0
 11
6785.292568996375
 21
9617.312880912059
 31
0.0
  0
LINE
  5
900
330
1F
100
AcDbEntity
  8
图层1
100
AcDbLine
 10
6734.981910837932
 20
9764.457365775195
 30
0.0
 11
6569.67509426555
 21
9663.968513013713
 31
0.0
  0
LINE
  5
901
330
1F
100
AcDbEntity
  8
图层1
100
AcDbLine
 10
7241.682964735549
 20
9642.435137651546
 30
0.0
 11
7356.678888752941
 21
9401.979475683305
 31
0.0
  0
LINE
  5
902
330
1F
100
AcDbEntity
  8
图层1
100
AcDbLine
 10
7288.400088167226
 20
9473.757277426228
 30
0.0
 11
7475.268581893704
 21
9552.712929021994
 31
0.0
  0
LINE
  5
903
330
1F
100
AcDbEntity
  8
图层1
100
AcDbLine
 10
7432.144993188851
 20
9552.712929021994
 30
0.0
 11
7543.547382479477
 21
9470.168396048908
 31
0.0
  0
LINE
  5
904
330
1F
100
AcDbEntity
  8
图层1
100
AcDbLine
 10
7514.798401475129
 20
9516.824028150534
 30
0.0
 11
7565.109059633572
 21
9358.912812057203
 31
0.0
  0
LINE
  5
905
330
1F
100
AcDbEntity
  8
图层1
100
AcDbLine
 10
7568.702828757
 20
9427.101732422807
 30
0.0
 11
7446.519600889414
 21
9294.312773068979
 31
0.0
  0
LINE
  5
906
330
1F
100
AcDbEntity
  8
图层1
100
AcDbLine
 10
7331.523442475416
 20
9319.435029808436
 30
0.0
 11
7521.985705325381
 21
9315.846148431118
 31
0.0
  0
LINE
  5
907
330
1F
100
AcDbEntity
  8
图层1
100
AcDbLine
 10
7295.58739201748
 20
9427.101732422807
 30
0.0
 11
7374.647031180213
 21
9283.546128936976
 31
0.0
  0
LINE
  5
908
330
1F
100
AcDbEntity
  8
图层1
100
AcDbLine
 10
7342.304515449098
 20
9484.524008656419
 30
0.0
 11
7302.77446147107
 21
9348.146167925245
 31
0.0
  0
LINE
  5
909
330
1F
100
AcDbEntity
  8
图层1
100
AcDbLine
 10
7716.65280931187
 20
9558.767299178542
 30
0.0
 11
7876.150757420751
 21
9426.080516555833
 31
0.0
  0
LINE
  5
90A
330
1F
100
AcDbEntity
  8
图层1
100
AcDbLine
 10
7845.998454304471
 20
9461.56789635342
 30
0.0
 11
7925.082980192442
 21
9264.478242354035
 31
0.0
  0
LINE
  5
90B
330
1F
100
AcDbEntity
  8
图层1
100
AcDbLine
 10
7874.772322033999
 20
9307.544993078343
 30
0.0
 11
8058.047046637048
 21
9293.189380470844
 31
0.0
  0
LINE
  5
90C
330
1F
100
AcDbEntity
  8
图层1
100
AcDbLine
 10
8011.329923205428
 20
9318.311637210346
 30
0.0
 11
8054.453511910223
 21
9181.933796479169
 31
0.0
  0
LINE
  5
90D
330
1F
100
AcDbEntity
  8
图层1
100
AcDbLine
 10
8068.827885214124
 20
9242.944954090088
 30
0.0
 11
7928.67674931587
 21
9171.167152347194
 31
0.0
  0
LINE
  5
90E
330
1F
100
AcDbEntity
  8
图层1
100
AcDbLine
 10
7982.580942201022
 20
9228.589341482589
 30
0.0
 11
7899.927533914918
 21
9063.500449732796
 31
0.0
  0
LINE
  5
90F
330
1F
100
AcDbEntity
  8
图层1
100
AcDbLine
 10
7964.612799773809
 20
9131.689370098397
 30
0.0
 11
7598.063116171049
 21
8912.767083492338
 31
0.0
  0
LINE
  5
910
330
1F
100
AcDbEntity
  8
图层1
100
AcDbLine
 10
7838.836037179397
 20
9085.033737996774
 30
0.0
 11
7946.644657346538
 21
8937.889253133608
 31
0.0
  0
LINE
  5
911
330
1F
100
AcDbEntity
  8
图层1
100
AcDbLine
 10
7590.876046717458
 20
9221.411578727922
 30
0.0
 11
7907.114837765113
 21
9250.122716844726
 31
0.0
  0
LINE
  5
912
330
1F
100
AcDbEntity
  8
图层1
100
AcDbLine
 10
7928.67674931587
 20
9329.078281342304
 30
0.0
 11
7863.991483456922
 21
9232.178309958127
 31
0.0
  0
LINE
  5
913
330
1F
100
AcDbEntity
  8
图层1
100
AcDbLine
 10
7633.999401025592
 20
9242.944954090088
 30
0.0
 11
7569.314135166701
 21
9106.56711335894
 31
0.0
  0
LINE
  5
915
330
1F
100
AcDbEntity
  8
图层1
100
AcDbLine
 10
10022.47597515251
 20
11133.69700449382
 30
0.0
 11
11002.79534266068
 21
9962.859490392808
 31
0.0
  0
LINE
  5
916
330
1F
100
AcDbEntity
  8
图层1
100
AcDbLine
 10
4537.551715961717
 20
10205.72951449616
 30
0.0
 11
4644.419233661436
 21
9734.353091931398
 31
0.0
  0
LINE
  5
917
330
1F
100
AcDbEntity
  8
图层1
100
AcDbLine
 10
4626.607902579244
 20
9894.443156624058
 30
0.0
 11
4599.891140352644
 21
9396.385158225127
 31
0.0
  0
LINE
  5
918
330
1F
100
AcDbEntity
  8
图层1
100
AcDbLine
 10
4136.798407389608
 20
9680.989766066595
 30
0.0
 11
4662.230564743572
 21
9645.41415742458
 31
0.0
  0
LINE
  5
919
330
1F
100
AcDbEntity
  8
图层1
100
AcDbLine
 10
9214.854653134535
 20
10952.40549568352
 30
0.0
 11
11120.65864064667
 21
8577.735752735133
 31
0.0
  0
LINE
  5
91A
330
1F
100
AcDbEntity
  8
图层1
100
AcDbLine
 10
9633.419058392235
 20
9680.578662557302
 30
0.0
 11
10630.84914545703
 21
10489.92293173015
 31
0.0
  0
LINE
  5
91B
330
1F
100
AcDbEntity
  8
图层1
100
AcDbLine
 10
10106.33371332102
 20
9667.195849758128
 30
0.0
 11
10814.88636229583
 21
10256.87828149922
 31
0.0
  0
LINE
  5
91C
330
1F
100
AcDbEntity
  8
图层1
100
AcDbLine
 10
10024.57780972915
 20
9679.291873733868
 30
0.0
 11
10157.80979152134
 21
9679.291873733868
 31
0.0
  0
LINE
  5
91D
330
1F
100
AcDbEntity
  8
图层1
100
AcDbLine
 10
10103.30577766121
 20
9703.484008783554
 30
0.0
 11
10266.81781924155
 21
9482.731092186286
 31
0.0
  0
LINE
  5
91E
330
1F
100
AcDbEntity
  8
图层1
100
AcDbLine
 10
9927.68175904488
 20
9122.87355147521
 30
0.0
 11
10993.53831657203
 21
10045.19742643282
 31
0.0
  0
LINE
  5
91F
330
1F
100
AcDbEntity
  8
图层1
100
AcDbLine
 10
10300.12581468961
 20
9881.90075436756
 30
0.0
 11
10381.88195267809
 21
9785.132301267083
 31
0.0
  0
LINE
  5
920
330
1F
100
AcDbEntity
  8
图层1
100
AcDbLine
 10
10363.71386992588
 20
9827.468472280356
 30
0.0
 11
10372.79791130201
 21
9724.652094290206
 31
0.0
  0
LINE
  5
921
330
1F
100
AcDbEntity
  8
图层1
100
AcDbLine
 10
10348.57395723008
 20
9785.132301267083
 30
0.0
 11
10457.58198495035
 21
9652.075776239383
 31
0.0
  0
LINE
  5
922
330
1F
100
AcDbEntity
  8
图层1
100
AcDbLine
 10
10424.27398950228
 20
9652.075776239383
 30
0.0
 11
10820.9422336155
 21
9990.765231443823
 31
0.0
  0
LINE
  5
923
330
1F
100
AcDbEntity
  8
图层1
100
AcDbLine
 10
10621.09402653069
 20
10126.84580601455
 30
0.0
 11
10814.88636229583
 21
9960.52508440626
 31
0.0
  0
LINE
  5
924
330
1F
100
AcDbEntity
  8
图层1
100
AcDbLine
 10
10073.02571787295
 20
9691.387984807827
 30
0.0
 11
9885.289722220742
 21
9522.043213656512
 31
0.0
  0
LINE
  5
925
330
1F
100
AcDbEntity
  8
图层1
100
AcDbLine
 10
9879.233616504414
 20
9555.307410237064
 30
0.0
 11
10051.82969946094
 21
9325.482432108902
 31
0.0
  0
LINE
  5
926
330
1F
100
AcDbEntity
  8
图层1
100
AcDbLine
 10
10254.70584220561
 20
9546.235348706169
 30
0.0
 11
10024.57780972915
 21
9331.530444096765
 31
0.0
  0
LINE
  5
927
330
1F
100
AcDbEntity
  8
图层1
100
AcDbLine
 10
10054.85786951741
 20
9407.130724592432
 30
0.0
 11
10151.75392020168
 21
9277.098249107764
 31
0.0
  0
LINE
  5
928
330
1F
100
AcDbEntity
  8
图层1
100
AcDbLine
 10
10224.42578241741
 20
9422.250798111177
 30
0.0
 11
10363.71386992588
 21
9234.761990996258
 31
0.0
  0
LINE
  5
929
330
1F
100
AcDbEntity
  8
图层1
100
AcDbLine
 10
10363.47056622442
 20
9284.594704180307
 30
0.0
 11
10124.25825797528
 21
9048.721714064265
 31
0.0
  0
LINE
  5
92A
330
1F
100
AcDbEntity
  8
图层1
100
AcDbLine
 10
10590.57066304103
 20
8513.471477312201
 30
0.0
 11
9139.933052068927
 21
10371.72083070778
 31
0.0
  0
LINE
  5
92B
330
1F
100
AcDbEntity
  8
图层1
100
AcDbLine
 10
7267.859442731192
 20
10064.29936841235
 30
0.0
 11
7339.954220445129
 21
9983.299609134416
 31
0.0
  0
LINE
  5
92C
330
1F
100
AcDbEntity
  8
图层1
100
AcDbLine
 10
7213.788359445754
 20
10043.29946953211
 30
0.0
 11
7234.815846681247
 21
9926.299759176259
 31
0.0
  0
LINE
  5
92D
330
1F
100
AcDbEntity
  8
图层1
100
AcDbLine
 10
7291.890957170342
 20
9692.300338464576
 30
0.0
 11
7499.163443097846
 21
9827.300024359375
 31
0.0
  0
LINE
  5
92E
330
1F
100
AcDbEntity
  8
图层1
100
AcDbLine
 10
7369.993554894872
 20
9899.299839416975
 30
0.0
 11
7430.072692587565
 21
9755.300209301791
 31
0.0
  0
LINE
  5
92F
330
1F
100
AcDbEntity
  8
图层1
100
AcDbLine
 10
7826.593970014075
 20
9653.300464045408
 30
0.0
 11
7724.459623453849
 21
9518.300865248811
 31
0.0
  0
LINE
  5
930
330
1F
100
AcDbEntity
  8
图层1
100
AcDbLine
 10
7739.479525075295
 20
9683.300394244236
 30
0.0
 11
7799.558428371383
 21
9560.300750107568
 31
0.0
  0
LINE
  5
931
330
1F
100
AcDbEntity
  8
图层1
100
AcDbLine
 10
7835.605817228324
 20
9746.300177983233
 30
0.0
 11
7724.459623453849
 21
9629.30055472561
 31
0.0
  0
LINE
  5
932
330
1F
100
AcDbEntity
  8
图层1
100
AcDbLine
 10
7763.511039514387
 20
9794.300083721005
 30
0.0
 11
7823.589942810476
 21
9689.30041512328
 31
0.0
  0
LINE
  5
933
330
1F
100
AcDbEntity
  8
图层1
100
AcDbLine
 10
8030.862428737981
 20
9986.29961957396
 30
0.0
 11
8193.075678594354
 21
10061.29935797285
 31
0.0
  0
LINE
  5
934
330
1F
100
AcDbEntity
  8
图层1
100
AcDbLine
 10
8081.392972981966
 20
10273.27262052828
 30
0.0
 11
8387.875685469714
 21
9572.510611432131
 31
0.0
  0
LINE
  5
935
330
1F
100
AcDbEntity
  8
图层1
100
AcDbLine
 10
8377.089924563481
 20
9674.839674987035
 30
0.0
 11
8355.518637147559
 21
9292.452268394749
 31
0.0
  0
LINE
  5
936
330
1F
100
AcDbEntity
  8
图层1
100
AcDbLine
 10
8344.732876241266
 20
9588.667850329924
 30
0.0
 11
9013.445364497256
 21
10030.29840814851
 31
0.0
  0
LINE
  5
937
330
1F
100
AcDbEntity
  8
图层1
100
AcDbLine
 10
8641.339308792261
 20
9841.797519936523
 30
0.0
 11
8716.839166342865
 21
9728.697021848601
 31
0.0
  0
LINE
  5
938
330
1F
100
AcDbEntity
  8
图层1
100
AcDbLine
 10
8673.696357114476
 20
9744.854260746352
 30
0.0
 11
8878.624407953759
 21
9847.183237203054
 31
0.0
  0
LINE
  5
939
330
1F
100
AcDbEntity
  8
图层1
100
AcDbLine
 10
8830.088835470496
 20
9857.954758834274
 30
0.0
 11
8975.695552920226
 21
9567.124894165642
 31
0.0
  0
LINE
  5
93A
330
1F
100
AcDbEntity
  8
图层1
100
AcDbLine
 10
8981.0883161751
 20
9626.368045391927
 30
0.0
 11
8840.874361980125
 21
9524.038981837065
 31
0.0
  0
LINE
  5
93B
330
1F
100
AcDbEntity
  8
图层1
100
AcDbLine
 10
8873.231410302281
 20
9599.439284862956
 30
0.0
 11
8889.409934463389
 21
9491.724591139753
 31
0.0
  0
LINE
  5
93C
330
1F
100
AcDbEntity
  8
图层1
100
AcDbLine
 10
8867.838647047468
 20
9518.653264570565
 30
0.0
 11
9115.909507115258
 21
9540.196220734832
 31
0.0
  0
LINE
  5
93D
330
1F
100
AcDbEntity
  8
图层1
100
AcDbLine
 10
9099.730982954151
 20
9755.625695279412
 30
0.0
 11
9056.588173725703
 21
9410.938483749173
 31
0.0
  0
LINE
  5
93E
330
1F
100
AcDbEntity
  8
图层1
100
AcDbLine
 10
8905.588458624496
 20
9610.210806494178
 30
0.0
 11
9099.730982954151
 21
9594.053567596425
 31
0.0
  0
LINE
  5
940
330
1F
100
AcDbEntity
  8
图层1
100
AcDbLine
 10
10597.87610279256
 20
8574.025195170825
 30
0.0
 11
10304.39019256999
 21
8290.497382389839
 31
0.0
  0
LINE
  5
941
330
1F
100
AcDbEntity
  8
图层1
100
AcDbLine
 10
9513.355010451926
 20
9501.203139975324
 30
0.0
 11
9201.568114588214
 21
9105.67130836036
 31
0.0
  0
LINE
  5
942
330
1F
100
AcDbEntity
  8
图层1
100
AcDbLine
 10
9237.807474284727
 20
9198.664054442101
 30
0.0
 11
9237.807474284727
 21
8806.683913272607
 31
0.0
  0
LINE
  5
943
330
1F
100
AcDbEntity
  8
图层1
100
AcDbLine
 10
9209.434231077439
 20
8901.137034892618
 30
0.0
 11
9365.487303114033
 21
8726.398881833103
 31
0.0
  0
LINE
  5
944
330
1F
100
AcDbEntity
  8
图层1
100
AcDbLine
 10
9313.469534302948
 20
8806.683913272607
 30
0.0
 11
9374.945207114159
 21
8254.133622125873
 31
0.0
  0
LINE
  5
945
330
1F
100
AcDbEntity
  8
图层1
100
AcDbLine
 10
9285.09629109566
 20
8773.625355544885
 30
0.0
 11
9852.562092827344
 21
8825.574555016258
 31
0.0
  0
LINE
  5
946
330
1F
100
AcDbEntity
  8
图层1
100
AcDbLine
 10
9058.109876644392
 20
8584.719286501297
 30
0.0
 11
9304.011864699367
 21
8594.164563823992
 31
0.0
  0
LINE
  5
947
330
1F
100
AcDbEntity
  8
图层1
100
AcDbLine
 10
9091.212071851712
 20
8613.055205567629
 30
0.0
 11
9110.127645455419
 21
8424.149136524027
 31
0.0
  0
LINE
  5
948
330
1F
100
AcDbEntity
  8
图层1
100
AcDbLine
 10
9086.483354248283
 20
8490.266251979475
 30
0.0
 11
9237.807474284727
 21
8386.367940134942
 31
0.0
  0
LINE
  5
949
330
1F
100
AcDbEntity
  8
图层1
100
AcDbLine
 10
9379.673924717646
 20
8447.762416929013
 30
0.0
 11
9157.416462266413
 21
8409.981133441766
 31
0.0
  0
LINE
  5
94A
330
1F
100
AcDbEntity
  8
图层1
100
AcDbLine
 10
9341.843011906837
 20
8405.258494780374
 30
0.0
 11
9635.033582376202
 21
8457.207694251765
 31
0.0
  0
LINE
  5
94B
330
1F
100
AcDbEntity
  8
图层1
100
AcDbLine
 10
10543.47709862242
 20
8437.196011561439
 30
0.0
 11
10836.66790348844
 21
8626.102080605027
 31
0.0
  0
LINE
  5
94C
330
1F
100
AcDbEntity
  8
图层1
100
AcDbLine
 10
10727.90364826284
 20
8597.766161538695
 30
0.0
 11
11238.62272918335
 21
8616.656803282348
 31
0.0
  0
LINE
  5
94D
330
1F
100
AcDbEntity
  8
图层1
100
AcDbLine
 10
11077.84070514672
 20
8687.496557399141
 30
0.0
 11
11191.33391237236
 21
7747.688763744218
 31
0.0
  0
LINE
  5
94E
330
1F
100
AcDbEntity
  8
图层1
100
AcDbLine
 10
10552.9350026226
 20
8489.145211032816
 30
0.0
 11
10642.78368424444
 21
7776.024682810593
 31
0.0
  0
LINE
  5
950
330
1F
100
AcDbEntity
  8
图层1
100
AcDbLine
 10
11238.19683050754
 20
10021.43485971108
 30
0.0
 11
11247.57949318964
 21
9627.883205698694
 31
0.0
  0
LINE
  5
951
330
1F
100
AcDbEntity
  8
图层1
100
AcDbLine
 10
11271.03603269666
 20
9684.104833229829
 30
0.0
 11
11167.8269775901
 21
9618.512919927168
 31
0.0
  0
LINE
  5
952
330
1F
100
AcDbEntity
  8
图层1
100
AcDbLine
 10
11055.2354941981
 20
9754.381932967334
 30
0.0
 11
11205.35762831848
 21
9623.198019263821
 31
0.0
  0
LINE
  5
953
330
1F
100
AcDbEntity
  8
图层1
100
AcDbLine
 10
11116.22245003685
 20
9866.825275127752
 30
0.0
 11
11055.2354941981
 21
9716.900789881115
 31
0.0
  0
LINE
  5
954
330
1F
100
AcDbEntity
  8
图层1
100
AcDbLine
 10
11027.08750615182
 20
9960.528045745093
 30
0.0
 11
11130.29656125832
 21
9791.863076053552
 31
0.0
  0
LINE
  5
955
330
1F
100
AcDbEntity
  8
图层1
100
AcDbLine
 10
11071.4435523345
 20
9968.932586662594
 30
0.0
 11
11267.77627877018
 21
9943.558354827231
 31
0.0
  0
LINE
  5
956
330
1F
100
AcDbEntity
  8
图层1
100
AcDbLine
 10
11117.63937766216
 20
9973.546091277945
 30
0.0
 11
10962.88298778003
 21
9878.969203114138
 31
0.0
  0
LINE
  5
957
330
1F
100
AcDbEntity
  8
图层1
100
AcDbLine
 10
11025.2474926103
 20
9934.331258498342
 30
0.0
 11
10893.58901539195
 21
9696.73546596406
 31
0.0
  0
LINE
  5
958
330
1F
100
AcDbEntity
  8
图层1
100
AcDbLine
 10
10893.58901539195
 20
9855.901592939181
 30
0.0
 11
10914.37718366866
 21
9699.04226182083
 31
0.0
  0
LINE
  5
959
330
1F
100
AcDbEntity
  8
图层1
100
AcDbLine
 10
10942.0948195032
 20
9765.938122292521
 30
0.0
 11
10759.62079378648
 21
9576.784258866718
 31
0.0
  0
LINE
  5
95A
330
1F
100
AcDbEntity
  8
图层1
100
AcDbLine
 10
10644.1307616742
 20
9775.16521862141
 30
0.0
 11
11013.69853627833
 21
9336.881670475623
 31
0.0
  0
LINE
  5
95B
330
1F
100
AcDbEntity
  8
图层1
100
AcDbLine
 10
10607.17391389474
 20
9669.054438271929
 30
0.0
 11
10914.37718366866
 21
9244.611491070383
 31
0.0
  0
LINE
  5
95C
330
1F
100
AcDbEntity
  8
图层1
100
AcDbLine
 10
10856.63216761249
 20
9560.636949163868
 30
0.0
 11
10517.09177322994
 21
9279.212819234635
 31
0.0
  0
LINE
  5
95D
330
1F
100
AcDbEntity
  8
图层1
100
AcDbLine
 10
10496.30360495322
 20
9583.704472240649
 30
0.0
 11
10671.84839750873
 21
9373.789707398456
 31
0.0
  0
LINE
  5
95E
330
1F
100
AcDbEntity
  8
图层1
100
AcDbLine
 10
10669.53865312168
 20
9433.7653544962
 30
0.0
 11
10785.02845083742
 21
9332.268165860272
 31
0.0
  0
LINE
  5
95F
330
1F
100
AcDbEntity
  8
图层1
100
AcDbLine
 10
10828.91453177796
 20
9413.004627276247
 30
0.0
 11
10745.76185867091
 21
9334.574874618853
 31
0.0
  0
LINE
  5
960
330
1F
100
AcDbEntity
  8
图层1
100
AcDbLine
 10
10632.58180534228
 20
9666.747642415145
 30
0.0
 11
10489.37437179201
 21
9549.103144076395
 31
0.0
  0
LINE
  5
961
330
1F
100
AcDbEntity
  8
图层1
100
AcDbLine
 10
10882.04005905997
 20
9791.312441226072
 30
0.0
 11
11002.14957994648
 21
9915.877240036955
 31
0.0
  0
LINE
  5
962
330
1F
100
AcDbEntity
  8
图层1
100
AcDbLine
 10
7201.584264534353
 20
9212.70489415073
 30
0.0
 11
7281.765022776091
 21
8926.722566963864
 31
0.0
  0
LINE
  5
963
330
1F
100
AcDbEntity
  8
图层1
100
AcDbLine
 10
7479.353177559272
 20
8978.199345792344
 30
0.0
 11
7616.805705062173
 21
9061.134252902867
 31
0.0
  0
LINE
  5
964
330
1F
100
AcDbEntity
  8
图层1
100
AcDbLine
 10
7588.169703233231
 20
9072.57355644211
 30
0.0
 11
7688.395592436137
 21
8889.544874010381
 31
0.0
  0
LINE
  5
965
330
1F
100
AcDbEntity
  8
图层1
100
AcDbLine
 10
7493.67106127547
 20
9015.377125844031
 30
0.0
 11
7562.397325026862
 21
8860.946615162253
 31
0.0
  0
LINE
  5
966
330
1F
100
AcDbEntity
  8
图层1
100
AcDbLine
 10
7487.944048426988
 20
8835.208225748027
 30
0.0
 11
7576.715443139722
 21
8898.12430811575
 31
0.0
  0
LINE
  5
967
330
1F
100
AcDbEntity
  8
图层1
100
AcDbLine
 10
7519.443439481839
 20
8912.423481088893
 30
0.0
 11
7639.714459645971
 21
9018.236908179742
 31
0.0
  0
LINE
  5
968
330
1F
100
AcDbEntity
  8
图层1
100
AcDbLine
 10
7576.715443139722
 20
8843.787659853338
 30
0.0
 11
7688.395592436137
 21
8923.862697529946
 31
0.0
  0
LINE
  5
969
330
1F
100
AcDbEntity
  8
图层1
100
AcDbLine
 10
8802.04421633779
 20
9155.721679949003
 30
0.0
 11
8973.43901656807
 21
9302.116075104093
 31
0.0
  0
LINE
  5
96A
330
1F
100
AcDbEntity
  8
图层1
100
AcDbLine
 10
9077.177808057285
 20
9511.572616310141
 30
0.0
 11
8905.783242223611
 21
9230.045013717992
 31
0.0
  0
LINE
  5
96B
330
1F
100
AcDbEntity
  8
图层1
100
AcDbLine
 10
8163.824854406179
 20
8858.428431971324
 30
0.0
 11
8883.231239309886
 21
9209.774997763153
 31
0.0
  0
LINE
  5
96C
330
1F
100
AcDbEntity
  8
图层1
100
AcDbLine
 10
8256.287761636837
 20
9038.606128985678
 30
0.0
 11
8321.688406008997
 21
8903.472921548562
 31
0.0
  0
LINE
  5
96D
330
1F
100
AcDbEntity
  8
图层1
100
AcDbLine
 10
8256.287761636837
 20
8991.30954122199
 30
0.0
 11
8348.750668867493
 21
9101.668362134869
 31
0.0
  0
LINE
  5
96E
330
1F
100
AcDbEntity
  8
图层1
100
AcDbLine
 10
8301.391533067628
 20
9061.128417323393
 30
0.0
 11
8423.17206752574
 21
9112.929462754653
 31
0.0
  0
LINE
  5
96F
330
1F
100
AcDbEntity
  8
图层1
100
AcDbLine
 10
8400.620064612073
 20
9124.19056337438
 30
0.0
 11
8481.80708758411
 21
8984.552898269763
 31
0.0
  0
LINE
  5
970
330
1F
100
AcDbEntity
  8
图层1
100
AcDbLine
 10
8028.513305717208
 20
9072.389517943149
 30
0.0
 11
8231.480628750755
 21
8833.654045447159
 31
0.0
  0
LINE
  5
971
330
1F
100
AcDbEntity
  8
图层1
100
AcDbLine
 10
7777.827048057517
 20
8305.673460051947
 30
0.0
 11
8020.745167019079
 21
8091.3785266752
 31
0.0
  0
LINE
  5
972
330
1F
100
AcDbEntity
  8
图层1
100
AcDbLine
 10
7838.556636397088
 20
8269.283744524035
 30
0.0
 11
7684.708533454221
 21
8067.118716323259
 31
0.0
  0
LINE
  5
973
330
1F
100
AcDbEntity
  8
图层1
100
AcDbLine
 10
7789.973012604751
 20
8253.110566655456
 30
0.0
 11
7947.869848528935
 21
8443.145776778465
 31
0.0
  0
LINE
  5
974
330
1F
100
AcDbEntity
  8
图层1
100
AcDbLine
 10
7927.626652415726
 20
8487.622037691549
 30
0.0
 11
7923.577919434466
 21
8378.452891107786
 31
0.0
  0
LINE
  5
975
330
1F
100
AcDbEntity
  8
图层1
100
AcDbLine
 10
7907.383456302575
 20
8451.232322163624
 30
0.0
 11
8049.085594698146
 21
8519.968480526868
 31
0.0
  0
LINE
  5
976
330
1F
100
AcDbEntity
  8
图层1
100
AcDbLine
 10
8004.550703887131
 20
8507.838575350882
 30
0.0
 11
8105.766684453064
 21
8499.75194286752
 31
0.0
  0
LINE
  5
977
330
1F
100
AcDbEntity
  8
图层1
100
AcDbLine
 10
8008.599436868449
 20
8641.267532286603
 30
0.0
 11
8081.474755358591
 21
8511.881848043492
 31
0.0
  0
LINE
  5
978
330
1F
100
AcDbEntity
  8
图层1
100
AcDbLine
 10
8081.474755358591
 20
8560.401468747388
 30
0.0
 11
8057.183060660726
 21
8435.059144295058
 31
0.0
  0
LINE
  5
979
330
1F
100
AcDbEntity
  8
图层1
100
AcDbLine
 10
8077.426256773936
 20
8483.578764998942
 30
0.0
 11
8008.599436868449
 21
8402.712701459741
 31
0.0
  0
LINE
  5
97A
330
1F
100
AcDbEntity
  8
图层1
100
AcDbLine
 10
8016.696668434423
 20
8439.102416987623
 30
0.0
 11
8040.988363132232
 21
8358.236440546642
 31
0.0
  0
LINE
  5
97B
330
1F
100
AcDbEntity
  8
图层1
100
AcDbLine
 10
8170.54477137729
 20
8293.543554875975
 30
0.0
 11
8020.745167019079
 21
8382.496250898583
 31
0.0
  0
LINE
  5
97C
330
1F
100
AcDbEntity
  8
图层1
100
AcDbLine
 10
7980.258774792661
 20
8099.465072060402
 30
0.0
 11
8142.204343698164
 21
8220.764123820137
 31
0.0
  0
LINE
  5
97D
330
1F
100
AcDbEntity
  8
图层1
100
AcDbLine
 10
8130.05837915087
 20
8354.193080755845
 30
0.0
 11
8105.766684453064
 21
8168.201230423631
 31
0.0
  0
LINE
  5
97E
330
1F
100
AcDbEntity
  8
图层1
100
AcDbLine
 10
8101.717951471744
 20
8232.894028996108
 30
0.0
 11
8194.836466075098
 21
7998.382557960013
 31
0.0
  0
LINE
  5
97F
330
1F
100
AcDbEntity
  8
图层1
100
AcDbLine
 10
8108.434821286648
 20
8284.352691398735
 30
0.0
 11
8236.273102237438
 21
8497.135687102147
 31
0.0
  0
LINE
  5
980
330
1F
100
AcDbEntity
  8
图层1
100
AcDbLine
 10
8193.660263788308
 20
8460.253344148666
 30
0.0
 11
8349.906947440761
 21
8522.66965703834
 31
0.0
  0
LINE
  5
981
330
1F
100
AcDbEntity
  8
图层1
100
AcDbLine
 10
8284.567480588917
 20
8511.321284021052
 30
0.0
 11
8531.721381042096
 21
8482.950177281431
 31
0.0
  0
LINE
  5
982
330
1F
100
AcDbEntity
  8
图层1
100
AcDbLine
 10
8491.949429742412
 20
8502.809960708988
 30
0.0
 11
8631.151024894617
 21
8343.931954583188
 31
0.0
  0
LINE
  5
983
330
1F
100
AcDbEntity
  8
图层1
100
AcDbLine
 10
8597.06084789394
 20
8406.348267472848
 30
0.0
 11
8639.673686343014
 21
8267.330044774636
 31
0.0
  0
LINE
  5
984
330
1F
100
AcDbEntity
  8
图层1
100
AcDbLine
 10
8631.151024894617
 20
8326.909307959059
 30
0.0
 11
8662.40054914239
 21
7767.999280362613
 31
0.0
  0
LINE
  5
985
330
1F
100
AcDbEntity
  8
图层1
100
AcDbLine
 10
8580.015759393633
 20
8349.606141091824
 30
0.0
 11
8756.148418695959
 21
8437.556511015898
 31
0.0
  0
LINE
  5
986
330
1F
100
AcDbEntity
  8
图层1
100
AcDbLine
 10
8653.877887693935
 20
8463.090393853873
 30
0.0
 11
8784.557055794229
 21
8414.859590784914
 31
0.0
  0
LINE
  5
987
330
1F
100
AcDbEntity
  8
图层1
100
AcDbLine
 10
8989.098117798219
 20
8505.647010414199
 30
0.0
 11
8778.875281495277
 21
8394.99989445559
 31
0.0
  0
LINE
  5
988
330
1F
100
AcDbEntity
  8
图层1
100
AcDbLine
 10
8809.216753200338
 20
8386.783311456097
 30
0.0
 11
8727.740015994235
 21
8446.067834327964
 31
0.0
  0
LINE
  5
989
330
1F
100
AcDbEntity
  8
图层1
100
AcDbLine
 10
8143.090831750887
 20
8390.790264198839
 30
0.0
 11
8279.077677129478
 21
8383.642463225369
 31
0.0
  0
LINE
  5
98A
330
1F
100
AcDbEntity
  8
图层1
100
AcDbLine
 10
8268.341842705329
 20
8472.989539902648
 30
0.0
 11
8228.977272747727
 21
8351.477533041155
 31
0.0
  0
LINE
  5
98B
330
1F
100
AcDbEntity
  8
图层1
100
AcDbLine
 10
8228.977272747727
 20
8437.25070923176
 30
0.0
 11
8322.020780429594
 21
8490.858955238136
 31
0.0
  0
LINE
  5
98C
330
1F
100
AcDbEntity
  8
图层1
100
AcDbLine
 10
8257.606008281118
 20
8741.030769934534
 30
0.0
 11
8293.392044896204
 21
8537.319487369247
 31
0.0
  0
LINE
  5
98D
330
1F
100
AcDbEntity
  8
图层1
100
AcDbLine
 10
8583.31418876385
 20
8866.73237446651
 30
0.0
 11
8203.982856954624
 21
8688.038221111934
 31
0.0
  0
LINE
  5
98E
330
1F
100
AcDbEntity
  8
图层1
100
AcDbLine
 10
8551.106685491282
 20
8870.306274953247
 30
0.0
 11
8665.621862021568
 21
8688.038221111934
 31
0.0
  0
LINE
  5
98F
330
1F
100
AcDbEntity
  8
图层1
100
AcDbLine
 10
8619.099990982332
 20
8702.333735960657
 30
0.0
 11
8855.28741072782
 21
8695.1859349872
 31
0.0
  0
LINE
  5
990
330
1F
100
AcDbEntity
  8
图层1
100
AcDbLine
 10
8966.609167577876
 20
7378.420349499929
 30
0.0
 11
8723.264446750635
 21
7560.68840334124
 31
0.0
  0
LINE
  5
991
330
1F
100
AcDbEntity
  8
图层1
100
AcDbLine
 10
8644.535306835491
 20
7853.746762583852
 30
0.0
 11
8762.629251104838
 21
7496.358542972875
 31
0.0
  0
LINE
  5
992
330
1F
100
AcDbEntity
  8
图层1
100
AcDbLine
 10
8562.227633577775
 20
7507.080157334847
 30
0.0
 11
8920.087530935244
 21
7710.791526998383
 31
0.0
  0
LINE
  5
993
330
1F
100
AcDbEntity
  8
图层1
100
AcDbLine
 10
8630.220939068767
 20
7832.303533859832
 30
0.0
 11
8948.716266468634
 21
7943.093839261132
 31
0.0
  0
LINE
  5
994
330
1F
100
AcDbEntity
  8
图层1
100
AcDbLine
 10
8920.087530935244
 20
7964.537155083327
 30
0.0
 11
9156.27495068079
 21
7578.557818676684
 31
0.0
  0
LINE
  5
995
330
1F
100
AcDbEntity
  8
图层1
100
AcDbLine
 10
9438.984007068912
 20
7839.451247735098
 30
0.0
 11
8655.271141259643
 21
7296.221073796075
 31
0.0
  0
LINE
  5
996
330
1F
100
AcDbEntity
  8
图层1
100
AcDbLine
 10
8923.666064277758
 20
7417.733080657568
 30
0.0
 11
9277.947193896109
 21
6899.520035929225
 31
0.0
  0
LINE
  5
997
330
1F
100
AcDbEntity
  8
图层1
100
AcDbLine
 10
9209.953888405058
 20
6953.128281935604
 30
0.0
 11
9474.770043683996
 21
6856.633491383056
 31
0.0
  0
LINE
  5
998
330
1F
100
AcDbEntity
  8
图层1
100
AcDbLine
 10
9668.014360129427
 20
6870.929006231779
 30
0.0
 11
9363.833634892888
 21
6874.5029067185
 31
0.0
  0
LINE
  5
999
330
1F
100
AcDbEntity
  8
图层1
100
AcDbLine
 10
9353.097800468736
 20
7253.334442151672
 30
0.0
 11
9660.857059047792
 21
6810.17295925193
 31
0.0
  0
LINE
  5
99A
330
1F
100
AcDbEntity
  8
图层1
100
AcDbLine
 10
9799.909343546957
 20
7335.300120480116
 30
0.0
 11
9063.231442998864
 21
6813.74685973868
 31
0.0
  0
LINE
  5
99B
330
1F
100
AcDbEntity
  8
图层1
100
AcDbLine
 10
8748.31464894151
 20
7381.994249986634
 30
0.0
 11
8490.655794744265
 21
7071.066475408564
 31
0.0
  0
LINE
  5
99C
330
1F
100
AcDbEntity
  8
图层1
100
AcDbLine
 10
8583.699302426133
 20
7557.114502854505
 30
0.0
 11
8590.856369111165
 21
7378.420349499929
 31
0.0
  0
LINE
  5
99D
330
1F
100
AcDbEntity
  8
图层1
100
AcDbLine
 10
8565.806166920289
 20
7417.733080657568
 30
0.0
 11
8755.471950023204
 21
7417.733080657568
 31
0.0
  0
LINE
  5
99E
330
1F
100
AcDbEntity
  8
图层1
100
AcDbLine
 10
8787.679218899169
 20
7546.392888492487
 30
0.0
 11
8780.52215221408
 21
7446.324110355028
 31
0.0
  0
LINE
  5
99F
330
1F
100
AcDbEntity
  8
图层1
100
AcDbLine
 10
8794.836519980805
 20
7485.636841512668
 30
0.0
 11
8687.478644532211
 21
7399.863665322079
 31
0.0
  0
LINE
  5
9A0
330
1F
100
AcDbEntity
  8
图层1
100
AcDbLine
 10
8411.926654829064
 20
7549.966788979223
 30
0.0
 11
8623.063872383735
 21
7524.949572670293
 31
0.0
  0
LINE
  5
9A1
330
1F
100
AcDbEntity
  8
图层1
100
AcDbLine
 10
8326.040213832168
 20
7785.843001728752
 30
0.0
 11
8447.712457047485
 21
7628.592164196326
 31
0.0
  0
LINE
  5
9A2
330
1F
100
AcDbEntity
  8
图层1
100
AcDbLine
 10
8390.454985980703
 20
7614.296649347588
 30
0.0
 11
8640.956773492916
 21
7753.678071544555
 31
0.0
  0
LINE
  5
9A3
330
1F
100
AcDbEntity
  8
图层1
100
AcDbLine
 10
8587.277835768651
 20
7750.104171057818
 30
0.0
 11
8737.579048913962
 21
7678.626509715982
 31
0.0
  0
LINE
  5
9A4
330
1F
100
AcDbEntity
  8
图层1
100
AcDbLine
 10
8436.976857019997
 20
7671.478795840744
 30
0.0
 11
8426.241022595787
 21
7524.949572670293
 31
0.0
  0
LINE
  5
9A5
330
1F
100
AcDbEntity
  8
图层1
100
AcDbLine
 10
5149.763365470922
 20
6689.155321780029
 30
0.0
 11
5104.347612126265
 21
8775.52061240137
 31
0.0
  0
LINE
  5
9A6
330
1F
100
AcDbEntity
  8
图层1
100
AcDbLine
 10
4295.997316590628
 20
8578.127607541979
 30
0.0
 11
4640.163762852899
 21
9615.631275942948
 31
0.0
  0
LINE
  5
9A7
330
1F
100
AcDbEntity
  8
图层1
100
AcDbLine
 10
3964.578062230199
 20
9291.013580308563
 30
0.0
 11
4563.6822522179
 21
9271.918431988691
 31
0.0
  0
LINE
  5
9A8
330
1F
100
AcDbEntity
  8
图层1
100
AcDbLine
 10
3843.482434723469
 20
9189.172702171015
 30
0.0
 11
4525.44161409879
 21
9074.601725153513
 31
0.0
  0
LINE
  5
9A9
330
1F
100
AcDbEntity
  8
图层1
100
AcDbLine
 10
4251.383199718781
 20
9392.854371347935
 30
0.0
 11
4072.926732231689
 21
8756.349078959063
 31
0.0
  0
LINE
  5
9AA
330
1F
100
AcDbEntity
  8
图层1
100
AcDbLine
 10
3575.797499096139
 20
8966.395884674193
 30
0.0
 11
4429.839901602595
 21
8743.618980079181
 31
0.0
  0
LINE
  5
9AB
330
1F
100
AcDbEntity
  8
图层1
100
AcDbLine
 10
3843.482434723469
 20
9036.411428513739
 30
0.0
 11
4455.333582216467
 21
8902.745303176393
 31
0.0
  0
LINE
  5
9AC
330
1F
100
AcDbEntity
  8
图层1
100
AcDbLine
 10
3907.216987853115
 20
9074.601725153513
 30
0.0
 11
3811.615275356921
 21
8590.857706421905
 31
0.0
  0
LINE
  5
9AD
330
1F
100
AcDbEntity
  8
图层1
100
AcDbLine
 10
4321.491231601163
 20
8743.618980079181
 30
0.0
 11
4315.117752848485
 21
8323.525542845358
 31
0.0
  0
LINE
  5
9AE
330
1F
100
AcDbEntity
  8
图层1
100
AcDbLine
 10
4302.370795343247
 20
8514.477113142381
 30
0.0
 11
4474.454018474382
 21
7572.44927343904
 31
0.0
  0
LINE
  5
9AF
330
1F
100
AcDbEntity
  8
图层1
100
AcDbLine
 10
3735.133764721979
 20
8285.335159107409
 30
0.0
 11
5188.280357216253
 21
8266.24001078752
 31
0.0
  0
LINE
  5
9B0
330
1F
100
AcDbEntity
  8
图层1
100
AcDbLine
 10
5723.64999407431
 20
8769.079177839003
 30
0.0
 11
5717.276515321691
 21
7884.3368701935
 31
0.0
  0
LINE
  5
9B1
330
1F
100
AcDbEntity
  8
图层1
100
AcDbLine
 10
5475.085494704837
 20
8431.731383324722
 30
0.0
 11
5787.384547203955
 21
8450.82653164461
 31
0.0
  0
LINE
  5
9B2
330
1F
100
AcDbEntity
  8
图层1
100
AcDbLine
 10
5309.375750326378
 20
8775.444314377155
 30
0.0
 11
5532.446569081921
 21
8469.921767062688
 31
0.0
  0
LINE
  5
9B3
330
1F
100
AcDbEntity
  8
图层1
100
AcDbLine
 10
5513.326132824005
 20
8559.032459222107
 30
0.0
 11
5506.952888468049
 21
8380.810987805036
 31
0.0
  0
LINE
  5
9B4
330
1F
100
AcDbEntity
  8
图层1
100
AcDbLine
 10
5615.301324072818
 20
8208.954565827886
 30
0.0
 11
5481.458973457513
 21
8476.286816502636
 31
0.0
  0
LINE
  5
9B5
330
1F
100
AcDbEntity
  8
图层1
100
AcDbLine
 10
5755.517387837464
 20
8202.589516387938
 30
0.0
 11
5551.567005339778
 21
8240.779813027698
 31
0.0
  0
LINE
  5
9B6
330
1F
100
AcDbEntity
  8
图层1
100
AcDbLine
 10
5647.168717836031
 20
8278.97010966746
 30
0.0
 11
5430.471377833049
 21
8119.843786570234
 31
0.0
  0
LINE
  5
9B7
330
1F
100
AcDbEntity
  8
图层1
100
AcDbLine
 10
5213.774037830125
 20
8088.018539370464
 30
0.0
 11
5557.940484092397
 21
8183.494368068064
 31
0.0
  0
LINE
  5
9B8
330
1F
100
AcDbEntity
  8
图层1
100
AcDbLine
 10
5207.400559077505
 20
8616.317991279929
 30
0.0
 11
5583.434164706328
 21
8049.828242730674
 31
0.0
  0
LINE
  5
9B9
330
1F
100
AcDbEntity
  8
图层1
100
AcDbLine
 10
5761.890866590141
 20
8138.939021988326
 30
0.0
 11
5494.205930962753
 21
8094.383588810412
 31
0.0
  0
LINE
  5
9BA
330
1F
100
AcDbEntity
  8
图层1
100
AcDbLine
 10
5564.31372844847
 20
8158.034170308198
 30
0.0
 11
5526.247247024964
 21
7622.059276522811
 31
0.0
  0
LINE
  5
9BB
330
1F
100
AcDbEntity
  8
图层1
100
AcDbLine
 10
5583.434164706328
 20
8005.272896650964
 30
0.0
 11
5341.243144089474
 21
7922.527166833262
 31
0.0
  0
LINE
  5
9BC
330
1F
100
AcDbEntity
  8
图层1
100
AcDbLine
 10
5220.147516582745
 20
8336.255641725299
 30
0.0
 11
5258.388154701913
 21
8062.5583416106
 31
0.0
  0
LINE
  5
9BD
330
1F
100
AcDbEntity
  8
图层1
100
AcDbLine
 10
5213.774037830125
 20
8138.939021988326
 30
0.0
 11
5449.591814090965
 21
7871.606771313576
 31
0.0
  0
LINE
  5
9BE
330
1F
100
AcDbEntity
  8
图层1
100
AcDbLine
 10
5424.09789908043
 20
7935.257265713201
 30
0.0
 11
5443.218335338345
 21
7655.19500325673
 31
0.0
  0
LINE
  5
9BF
330
1F
100
AcDbEntity
  8
图层1
100
AcDbLine
 10
5067.184729709466
 20
7693.385299896476
 30
0.0
 11
5736.570873878664
 21
7698.439956900537
 31
0.0
  0
LINE
  5
9C0
330
1F
100
AcDbEntity
  8
图层1
100
AcDbLine
 10
5564.487885144132
 20
6654.57123905962
 30
0.0
 11
5730.197629522708
 21
8290.389816111455
 31
0.0
  0
LINE
  5
9C1
330
1F
100
AcDbEntity
  8
图层1
100
AcDbLine
 10
4646.711163904635
 20
6762.777166637146
 30
0.0
 11
6220.953149508918
 21
6794.602413836958
 31
0.0
  0
LINE
  5
9C2
330
1F
100
AcDbEntity
  8
图层1
100
AcDbLine
 10
5583.608087005385
 20
7596.59907876296
 30
0.0
 11
6227.326628261597
 21
7583.868979883021
 31
0.0
  0
LINE
  5
9C3
330
1F
100
AcDbEntity
  8
图层1
100
AcDbLine
 10
5825.799342018844
 20
7475.663052305496
 30
0.0
 11
6048.869926377783
 21
7685.709858020612
 31
0.0
  0
LINE
  5
9C4
330
1F
100
AcDbEntity
  8
图层1
100
AcDbLine
 10
5857.666501385393
 20
7558.4087821232
 30
0.0
 11
5813.052384513606
 21
6349.048691745124
 31
0.0
  0
LINE
  5
9C5
330
1F
100
AcDbEntity
  8
图层1
100
AcDbLine
 10
5800.305427008368
 20
7214.695938168943
 30
0.0
 11
6144.471638874035
 21
7221.060987608891
 31
0.0
  0
LINE
  5
9C6
330
1F
100
AcDbEntity
  8
图层1
100
AcDbLine
 10
5981.61168871692
 20
8826.181629478092
 30
0.0
 11
5945.567815809395
 21
7719.292485624499
 31
0.0
  0
LINE
  5
9C7
330
1F
100
AcDbEntity
  8
图层1
100
AcDbLine
 10
5909.52394290187
 20
7809.283479302703
 30
0.0
 11
6152.820143626771
 21
7494.314957879867
 31
0.0
  0
LINE
  5
9C8
330
1F
100
AcDbEntity
  8
图层1
100
AcDbLine
 10
6693.478471636192
 20
7332.331204098363
 30
0.0
 11
5990.62283274124
 21
7611.303258371369
 31
0.0
  0
LINE
  5
9C9
330
1F
100
AcDbEntity
  8
图层1
100
AcDbLine
 10
6116.776270719245
 20
7917.272619457628
 30
0.0
 11
6017.655561624445
 21
6108.453672655105
 31
0.0
  0
LINE
  5
9CA
330
1F
100
AcDbEntity
  8
图层1
100
AcDbLine
 10
6092.797729918443
 20
7759.208546021333
 30
0.0
 11
6189.303041421343
 21
8026.580687672195
 31
0.0
  0
LINE
  5
9CB
330
1F
100
AcDbEntity
  8
图层1
100
AcDbLine
 10
6145.72003532271
 20
7951.965226536664
 30
0.0
 11
6441.462481897383
 21
8321.933561925229
 31
0.0
  0
LINE
  5
9CC
330
1F
100
AcDbEntity
  8
图层1
100
AcDbLine
 10
5934.030579308922
 20
8359.241292493015
 30
0.0
 11
6783.901190603677
 21
8200.683459354527
 31
0.0
  0
LINE
  5
9CD
330
1F
100
AcDbEntity
  8
图层1
100
AcDbLine
 10
6662.491237216804
 20
8247.318100789684
 30
0.0
 11
7045.399930385349
 21
8035.907598539594
 31
0.0
  0
LINE
  5
9CE
330
1F
100
AcDbEntity
  8
图层1
100
AcDbLine
 10
7236.394273584244
 20
8610.833678849759
 30
0.0
 11
5940.750027486706
 21
6092.032003618737
 31
0.0
  0
LINE
  5
9CF
330
1F
100
AcDbEntity
  8
图层1
100
AcDbLine
 10
5916.246672632464
 20
6185.022136754448
 30
0.0
 11
7048.302698245098
 21
5862.003651190903
 31
0.0
  0
LINE
  5
9D0
330
1F
100
AcDbEntity
  8
图层1
100
AcDbLine
 10
6298.499289635104
 20
5754.330851702476
 30
0.0
 11
6572.937192158192
 21
6718.492173373704
 31
0.0
  0
LINE
  5
9D1
330
1F
100
AcDbEntity
  8
图层1
100
AcDbLine
 10
6107.372981133756
 20
6806.588084391846
 30
0.0
 11
7494.264319144715
 21
6331.848800281708
 31
0.0
  0
LINE
  5
9D2
330
1F
100
AcDbEntity
  8
图层1
100
AcDbLine
 10
6524.412870713161
 20
6599.030719461302
 30
0.0
 11
6887.203301172064
 21
7227.29573813998
 31
0.0
  0
LINE
  5
9D3
330
1F
100
AcDbEntity
  8
图层1
100
AcDbLine
 10
6543.710276426342
 20
7416.160696832642
 30
0.0
 11
7423.6699142562
 21
6722.371091760802
 31
0.0
  0
LINE
  5
9D4
330
1F
100
AcDbEntity
  8
图层1
100
AcDbLine
 10
7284.728968156037
 20
7169.479952233702
 30
0.0
 11
6779.138016695623
 21
6494.962217731785
 31
0.0
  0
LINE
  5
9D5
330
1F
100
AcDbEntity
  8
图层1
100
AcDbLine
 10
6397.050414920261
 20
7115.518523021751
 30
0.0
 11
6956.673774222204
 21
6687.681620217006
 31
0.0
  0
LINE
  5
9D6
330
1F
100
AcDbEntity
  8
图层1
100
AcDbLine
 10
6362.315178395192
 20
7281.257167351903
 30
0.0
 11
7068.598399203214
 21
6803.313192029576
 31
0.0
  0
LINE
  5
9D7
330
1F
100
AcDbEntity
  8
图层1
100
AcDbLine
 10
6304.423195652315
 20
7516.374841867834
 30
0.0
 11
6196.357911175933
 21
7127.081680203035
 31
0.0
  0
LINE
  5
9D8
330
1F
100
AcDbEntity
  8
图层1
100
AcDbLine
 10
6003.384322837578
 20
7235.00453862688
 30
0.0
 11
6512.83461480256
 21
7061.557093809786
 31
0.0
  0
LINE
  5
9D9
330
1F
100
AcDbEntity
  8
图层1
100
AcDbLine
 10
6485.818293683465
 20
7462.413412655912
 30
0.0
 11
6126.887438125852
 21
6757.060563304553
 31
0.0
  0
LINE
  5
9DA
330
1F
100
AcDbEntity
  8
图层1
100
AcDbLine
 10
6211.795741987764
 20
7296.674768325733
 30
0.0
 11
6493.537209089438
 21
7211.878224264399
 31
0.0
  0
LINE
  5
9DB
330
1F
100
AcDbEntity
  8
图层1
100
AcDbLine
 10
6579.408648701968
 20
7717.879839900463
 30
0.0
 11
7438.569804803411
 21
7012.081483250373
 31
0.0
  0
LINE
  5
9DC
330
1F
100
AcDbEntity
  8
图层1
100
AcDbLine
 10
7133.706282185158
 20
7316.543522868004
 30
0.0
 11
6946.6308162348
 21
7019.001086936874
 31
0.0
  0
LINE
  5
9DD
330
1F
100
AcDbEntity
  8
图层1
100
AcDbLine
 10
6163.685364990438
 20
6610.745166217927
 30
0.0
 11
6870.414876981057
 21
6361.639868994234
 31
0.0
  0
LINE
  5
9DE
330
1F
100
AcDbEntity
  8
图层1
100
AcDbLine
 10
6828.842525170244
 20
6624.584373590948
 30
0.0
 11
6717.982998473629
 21
6077.936640436184
 31
0.0
  0
LINE
  5
9DF
330
1F
100
AcDbEntity
  8
图层1
100
AcDbLine
 10
6350.760830940796
 20
6313.202730286813
 30
0.0
 11
7092.133930374345
 21
6140.212986516655
 31
0.0
  0
LINE
  5
9E0
330
1F
100
AcDbEntity
  8
图层1
100
AcDbLine
 10
6040.398128997942
 20
6323.328941345932
 30
0.0
 11
6097.931250501018
 21
6117.15878946467
 31
0.0
  0
LINE
  5
9E1
330
1F
100
AcDbEntity
  8
图层1
100
AcDbLine
 10
6382.212170686574
 20
6350.36770690294
 30
0.0
 11
6280.6832706203
 21
6056.32165405958
 31
0.0
  0
LINE
  5
9E2
330
1F
100
AcDbEntity
  8
图层1
100
AcDbLine
 10
6081.009689024417
 20
6448.382970752534
 30
0.0
 11
6534.505520786044
 21
6252.352355955158
 31
0.0
  0
LINE
  5
9E3
330
1F
100
AcDbEntity
  8
图层1
100
AcDbLine
 10
6053.935237541272
 20
6367.266848277872
 30
0.0
 11
6290.836160626962
 21
6215.174140412452
 31
0.0
  0
LINE
  5
9E4
330
1F
100
AcDbEntity
  8
图层1
100
AcDbLine
 10
6294.22037916357
 20
6407.824909515203
 30
0.0
 11
6240.071710593767
 21
6221.933744703512
 31
0.0
  0
LINE
  5
9E5
330
1F
100
AcDbEntity
  8
图层1
100
AcDbLine
 10
6388.98084215657
 20
6553.158013089579
 30
0.0
 11
6256.993272070424
 21
6330.088632735181
 31
0.0
  0
LINE
  5
9E6
330
1F
100
AcDbEntity
  8
图层1
100
AcDbLine
 10
6368.675062143303
 20
6232.073281787384
 30
0.0
 11
6212.997259110562
 21
6248.972510260535
 31
0.0
  0
LINE
  5
9E7
330
1F
100
AcDbEntity
  8
图层1
100
AcDbLine
 10
6328.063502116829
 20
6265.871651635452
 30
0.0
 11
6368.675062143303
 21
6164.476542091263
 31
0.0
  0
LINE
  5
9E8
330
1F
100
AcDbEntity
  8
图层1
100
AcDbLine
 10
6453.282400733036
 20
6157.716850702001
 30
0.0
 11
6341.600610660099
 21
6191.515220550068
 31
0.0
  0
LINE
  5
9E9
330
1F
100
AcDbEntity
  8
图层1
100
AcDbLine
 10
5795.496076964308
 20
6454.591243430467
 30
0.0
 11
6003.65598853113
 21
5971.760362239457
 31
0.0
  0
LINE
  5
9EA
330
1F
100
AcDbEntity
  8
图层1
100
AcDbLine
 10
6050.659779040667
 20
6434.473300934773
 30
0.0
 11
5338.887692359684
 21
6229.94076943107
 31
0.0
  0
LINE
  5
9EB
330
1F
100
AcDbEntity
  8
图层1
100
AcDbLine
 10
5050.149954660855
 20
6203.116875136232
 30
0.0
 11
5536.97511196381
 21
6270.176741520646
 31
0.0
  0
LINE
  5
9EC
330
1F
100
AcDbEntity
  8
图层1
100
AcDbLine
 10
5946.579706058897
 20
6048.879199871725
 30
0.0
 11
6409.903085305415
 21
5609.637223120754
 31
0.0
  0
LINE
  5
9ED
330
1F
100
AcDbEntity
  8
图层1
100
AcDbLine
 10
6322.61026453157
 20
5666.638031159124
 30
0.0
 11
6624.777757117351
 21
5562.695299232034
 31
0.0
  0
LINE
  5
9EE
330
1F
100
AcDbEntity
  8
图层1
100
AcDbLine
 10
6517.340421211383
 20
5562.695299232034
 30
0.0
 11
7118.317909062084
 21
5683.403041304327
 31
0.0
  0
LINE
  5
9EF
330
1F
100
AcDbEntity
  8
图层1
100
AcDbLine
 10
6285.678731588124
 20
5824.228725872313
 30
0.0
 11
7007.523075835139
 21
5629.755165616433
 31
0.0
  0
LINE
  5
9F0
330
1F
100
AcDbEntity
  8
图层1
100
AcDbLine
 10
6688.568565438153
 20
5690.1089931035
 30
0.0
 11
6732.215093023377
 21
6169.586941944018
 31
0.0
  0
LINE
  5
9F1
330
1F
100
AcDbEntity
  8
图层1
100
AcDbLine
 10
6668.424050305971
 20
5740.403936440901
 30
0.0
 11
7067.956621231629
 21
5763.874811287057
 31
0.0
  0
LINE
  5
9F2
330
1F
100
AcDbEntity
  8
图层1
100
AcDbLine
 10
7484.118226640335
 20
7691.683401046515
 30
0.0
 11
7274.405671799731
 21
6739.086455931339
 31
0.0
  0
LINE
  5
9F3
330
1F
100
AcDbEntity
  8
图层1
100
AcDbLine
 10
7369.114567534243
 20
7022.83872077664
 30
0.0
 11
6976.749376745255
 21
6212.11795163321
 31
0.0
  0
LINE
  5
9F4
330
1F
100
AcDbEntity
  8
图层1
100
AcDbLine
 10
7003.534348391055
 20
6365.717806770892
 30
0.0
 11
6969.709742771637
 21
5798.2131899821
 31
0.0
  0
LINE
  5
9F5
330
1F
100
AcDbEntity
  8
图层1
100
AcDbLine
 10
7409.429615824426
 20
4926.688295651814
 30
0.0
 11
6935.885137152161
 21
5946.845312120456
 31
0.0
  0
LINE
  5
9F6
330
1F
100
AcDbEntity
  8
图层1
100
AcDbLine
 10
7247.208396482689
 20
6459.223212864458
 30
0.0
 11
7157.018902161567
 21
6018.351106181251
 31
0.0
  0
LINE
  5
9F7
330
1F
100
AcDbEntity
  8
图层1
100
AcDbLine
 10
7223.474331366422
 20
5786.063687710896
 30
0.0
 11
7152.272136017682
 21
6084.718977357745
 31
0.0
  0
LINE
  5
9F8
330
1F
100
AcDbEntity
  8
图层1
100
AcDbLine
 10
6767.780328013469
 20
5677.030849811873
 30
0.0
 11
7147.52536987368
 21
5743.398720988353
 31
0.0
  0
LINE
  5
9F9
330
1F
100
AcDbEntity
  8
图层1
100
AcDbLine
 10
7565.245009678649
 20
6122.64345028767
 30
0.0
 11
7009.867745320022
 21
5677.030849811873
 31
0.0
  0
LINE
  5
9FA
330
1F
100
AcDbEntity
  8
图层1
100
AcDbLine
 10
7437.447513741384
 20
6083.513886646969
 30
0.0
 11
7636.813801355952
 21
6045.589413717059
 31
0.0
  0
LINE
  5
9FB
330
1F
100
AcDbEntity
  8
图层1
100
AcDbLine
 10
7589.345671123476
 20
6083.513886646969
 30
0.0
 11
8386.810352788657
 21
4832.006192861042
 31
0.0
  0
LINE
  5
9FC
330
1F
100
AcDbEntity
  8
图层1
100
AcDbLine
 10
6705.68233215093
 20
5299.784850031957
 30
0.0
 11
7281.066989613407
 21
5560.49502447523
 31
0.0
  0
LINE
  5
9FD
330
1F
100
AcDbEntity
  8
图层1
100
AcDbLine
 10
7867.10684905958
 20
5932.938168150537
 30
0.0
 11
7046.651139593568
 21
5432.800264708731
 31
0.0
  0
LINE
  5
9FE
330
1F
100
AcDbEntity
  8
图层1
100
AcDbLine
 10
7744.57132305787
 20
5874.411399628463
 30
0.0
 11
8218.730858485974
 21
6018.068037027614
 31
0.0
  0
LINE
  5
9FF
330
1F
100
AcDbEntity
  8
图层1
100
AcDbLine
 10
8101.522699079419
 20
6002.106159394961
 30
0.0
 11
8447.819107513877
 21
6007.426814305237
 31
0.0
  0
LINE
  5
A00
330
1F
100
AcDbEntity
  8
图层1
100
AcDbLine
 10
8362.577022851564
 20
6028.709259749962
 30
0.0
 11
8581.009835499283
 21
5911.655722705827
 31
0.0
  0
LINE
  5
A01
330
1F
100
AcDbEntity
  8
图层1
100
AcDbLine
 10
8559.699431532006
 20
5959.541268505539
 30
0.0
 11
8698.217994905837
 21
5486.006378320531
 31
0.0
  0
LINE
  5
A02
330
1F
100
AcDbEntity
  8
图层1
100
AcDbLine
 10
8549.044229548426
 20
5874.411399628463
 30
0.0
 11
8660.92455356644
 21
5874.411399628463
 31
0.0
  0
LINE
  5
A03
330
1F
100
AcDbEntity
  8
图层1
100
AcDbLine
 10
8634.28631421074
 20
5911.655722705827
 30
0.0
 11
8714.200797881293
 21
5624.342447907581
 31
0.0
  0
LINE
  5
A04
330
1F
100
AcDbEntity
  8
图层1
100
AcDbLine
 10
8612.975675846859
 20
5629.663015719653
 30
0.0
 11
9049.841769935566
 21
5794.602098563501
 31
0.0
  0
LINE
  5
A05
330
1F
100
AcDbEntity
  8
图层1
100
AcDbLine
 10
8735.511436245174
 20
5725.434107319063
 30
0.0
 11
7451.551393334813
 21
4655.990309191028
 31
0.0
  0
LINE
  5
A06
330
1F
100
AcDbEntity
  8
图层1
100
AcDbLine
 10
7323.688031944563
 20
5055.036466123134
 30
0.0
 11
8303.972943148286
 21
4336.753279127491
 31
0.0
  0
LINE
  5
A07
330
1F
100
AcDbEntity
  8
图层1
100
AcDbLine
 10
8719.528398873112
 20
5177.410658077545
 30
0.0
 11
6593.315400730005
 21
3286.702940658205
 31
0.0
  0
LINE
  5
A08
330
1F
100
AcDbEntity
  8
图层1
100
AcDbLine
 10
8936.16713971866
 20
5705.484612744364
 30
0.0
 11
9475.455185032044
 21
6549.920834248381
 31
0.0
  0
LINE
  5
A09
330
1F
100
AcDbEntity
  8
图层1
100
AcDbLine
 10
8701.45009002992
 20
6981.097169182442
 30
0.0
 11
9779.926327692521
 21
6604.618765849043
 31
0.0
  0
LINE
  5
A0A
330
1F
100
AcDbEntity
  8
图层1
100
AcDbLine
 10
9629.136163178078
 20
6912.348904169212
 30
0.0
 11
9527.517020409405
 21
6653.724644544684
 31
0.0
  0
LINE
  5
A0B
330
1F
100
AcDbEntity
  8
图层1
100
AcDbLine
 10
9419.341569517159
 20
6778.126221326694
 30
0.0
 11
9317.722192351883
 21
6519.501961702136
 31
0.0
  0
LINE
  5
A0C
330
1F
100
AcDbEntity
  8
图层1
100
AcDbLine
 10
9199.712630869065
 20
6558.786647239035
 30
0.0
 11
9366.892745304447
 21
6542.41802100714
 31
0.0
  0
LINE
  5
A10
330
1F
100
AcDbEntity
  8
图层1
100
AcDbLine
 10
9747.145959057498
 20
6948.359916718681
 30
0.0
 11
9635.692471301652
 21
6856.695592400433
 31
0.0
  0
LINE
  5
A11
330
1F
100
AcDbEntity
  8
图层1
100
AcDbLine
 10
9216.046559995566
 20
7296.110546178829
 30
0.0
 11
9317.665702764179
 21
7430.333229021407
 31
0.0
  0
LINE
  5
A12
330
1F
100
AcDbEntity
  8
图层1
100
AcDbLine
 10
9278.329260402129
 20
7417.238362875146
 30
0.0
 11
9429.119190519967
 21
7263.373293715054
 31
0.0
  0
LINE
  5
A13
330
1F
100
AcDbEntity
  8
图层1
100
AcDbLine
 10
9422.563116792941
 20
7322.300365569482
 30
0.0
 11
9350.446305795866
 21
7191.351355714393
 31
0.0
  0
LINE
  5
A14
330
1F
100
AcDbEntity
  8
图层1
100
AcDbLine
 10
9399.616858748489
 20
7240.457234410064
 30
0.0
 11
9281.60729726567
 21
7204.446221860625
 31
0.0
  0
LINE
  5
A15
330
1F
100
AcDbEntity
  8
图层1
100
AcDbLine
 10
9209.490486268538
 20
7345.216424874486
 30
0.0
 11
9327.500047751355
 21
7184.803922641285
 31
0.0
  0
LINE
  5
A16
330
1F
100
AcDbEntity
  8
图层1
100
AcDbLine
 10
8848.905493696571
 20
7269.920726788176
 30
0.0
 11
9029.362664941817
 21
6982.547359413428
 31
0.0
  0
LINE
  5
A17
330
1F
100
AcDbEntity
  8
图层1
100
AcDbLine
 10
8727.059328182194
 20
7232.216699405302
 30
0.0
 11
8789.604787210413
 21
7077.896193751502
 31
0.0
  0
LINE
  5
A18
330
1F
100
AcDbEntity
  8
图层1
100
AcDbLine
 10
8734.417741571963
 20
7136.684953662572
 30
0.0
 11
8881.583431004548
 21
7041.153207919812
 31
0.0
  0
LINE
  5
A19
330
1F
100
AcDbEntity
  8
图层1
100
AcDbLine
 10
8955.166392919085
 20
7140.3592783752
 30
0.0
 11
8833.754564359203
 21
7041.153207919812
 31
0.0
  0
LINE
  5
A1A
330
1F
100
AcDbEntity
  8
图层1
100
AcDbLine
 10
8708.663646302712
 20
7191.799475959202
 30
0.0
 11
8888.941844394315
 21
7261.611122909909
 31
0.0
  0
LINE
  5
A1B
330
1F
100
AcDbEntity
  8
图层1
100
AcDbLine
 10
8520.5676174275
 20
7136.322102556679
 30
0.0
 11
8487.455343165088
 21
6985.675834517319
 31
0.0
  0
LINE
  5
A1C
330
1F
100
AcDbEntity
  8
图层1
100
AcDbLine
 10
8274.06487081107
 20
7059.1618061807
 30
0.0
 11
8888.482192603872
 21
6937.909961645961
 31
0.0
  0
LINE
  5
A1D
330
1F
100
AcDbEntity
  8
图层1
100
AcDbLine
 10
8123.219857485326
 20
7169.390763675754
 30
0.0
 11
8366.043514605207
 21
7026.093145061652
 31
0.0
  0
LINE
  5
A1E
330
1F
100
AcDbEntity
  8
图层1
100
AcDbLine
 10
7729.551187039762
 20
7297.991257635736
 30
0.0
 11
8240.952596548655
 21
7117.950653189915
 31
0.0
  0
LINE
  5
A1F
330
1F
100
AcDbEntity
  8
图层1
100
AcDbLine
 10
7505.080317216169
 20
7673.155697506944
 30
0.0
 11
7788.37466198823
 21
7265.308528645828
 31
0.0
  0
LINE
  5
A20
330
1F
100
AcDbEntity
  8
图层1
100
AcDbLine
 10
8009.123313335354
 20
7474.743556596256
 30
0.0
 11
7843.56170762668
 21
7224.891218101537
 31
0.0
  0
LINE
  5
A21
330
1F
100
AcDbEntity
  8
图层1
100
AcDbLine
 10
7744.224884839439
 20
7812.779078506636
 30
0.0
 11
7990.72763145587
 21
7368.188836715624
 31
0.0
  0
LINE
  5
A22
330
1F
100
AcDbEntity
  8
图层1
100
AcDbLine
 10
8461.658353312641
 20
7566.600977626342
 30
0.0
 11
8321.850842873219
 21
7489.440768348583
 31
0.0
  0
LINE
  5
A23
330
1F
100
AcDbEntity
  8
图层1
100
AcDbLine
 10
8343.925614249254
 20
7816.45340321925
 30
0.0
 11
8259.305383845001
 21
7629.064062250026
 31
0.0
  0
LINE
  5
A24
330
1F
100
AcDbEntity
  8
图层1
100
AcDbLine
 10
8266.663562838164
 20
7720.921570378317
 30
0.0
 11
8354.963117135632
 21
7452.697782516891
 31
0.0
  0
LINE
  5
A25
330
1F
100
AcDbEntity
  8
图层1
100
AcDbLine
 10
8803.819067616307
 20
7691.527146873709
 30
0.0
 11
8877.4017951343
 21
7507.812217715318
 31
0.0
  0
LINE
  5
A26
330
1F
100
AcDbEntity
  8
图层1
100
AcDbLine
 10
8973.059762821534
 20
7647.435598714967
 30
0.0
 11
8829.572928488955
 21
7555.578090586675
 31
0.0
  0
LINE
  5
A27
330
1F
100
AcDbEntity
  8
图层1
100
AcDbLine
 10
8877.4017951343
 20
7724.59589509096
 30
0.0
 11
8958.343170438663
 21
7610.692612883275
 31
0.0
  0
LINE
  5
A28
330
1F
100
AcDbEntity
  8
图层1
100
AcDbLine
 10
9143.052636810871
 20
7891.097084171973
 30
0.0
 11
9257.106286377647
 21
7659.616195043991
 31
0.0
  0
LINE
  5
A29
330
1F
100
AcDbEntity
  8
图层1
100
AcDbLine
 10
9485.339456501302
 20
7589.866213619671
 30
0.0
 11
9919.478814599049
 21
8060.176554202632
 31
0.0
  0
LINE
  5
A2A
330
1F
100
AcDbEntity
  8
图层1
100
AcDbLine
 10
9202.045346125846
 20
7714.792382867037
 30
0.0
 11
9246.195123274638
 21
7847.067201539617
 31
0.0
  0
LINE
  5
A2B
330
1F
100
AcDbEntity
  8
图层1
100
AcDbLine
 10
9202.045346125846
 20
7810.324128609723
 30
0.0
 11
9363.927627941304
 21
7880.135862658677
 31
0.0
  0
LINE
  5
A2C
330
1F
100
AcDbEntity
  8
图层1
100
AcDbLine
 10
9290.344666026767
 20
7891.15874969839
 30
0.0
 11
9422.793997473027
 21
7968.319046074383
 31
0.0
  0
LINE
  5
A2D
330
1F
100
AcDbEntity
  8
图层1
100
AcDbLine
 10
9286.665576530158
 20
8159.382624658004
 30
0.0
 11
9463.264685125151
 21
7865.438650906352
 31
0.0
  0
LINE
  5
A2E
330
1F
100
AcDbEntity
  8
图层1
100
AcDbLine
 10
9286.665576530158
 20
8129.988201153366
 30
0.0
 11
9603.072195564632
 21
8152.033975232745
 31
0.0
  0
LINE
  5
A2F
330
1F
100
AcDbEntity
  8
图层1
100
AcDbLine
 10
9566.280831805606
 20
8174.079749312125
 30
0.0
 11
9661.938565096296
 21
7990.364820153719
 31
0.0
  0
LINE
  5
A30
330
1F
100
AcDbEntity
  8
图层1
100
AcDbLine
 10
9665.61765459285
 20
8060.176554202632
 30
0.0
 11
9415.435818479863
 21
7876.461537946063
 31
0.0
  0
LINE
  5
A31
330
1F
100
AcDbEntity
  8
图层1
100
AcDbLine
 10
2813.340657236056
 20
8766.217653539255
 30
0.0
 11
2755.561419271982
 21
8057.294213432838
 31
0.0
  0
LINE
  5
A32
330
1F
100
AcDbEntity
  8
图层1
100
AcDbLine
 10
2062.211032496418
 20
8370.539496946431
 30
0.0
 11
3539.70745005255
 21
8329.322973308595
 31
0.0
  0
LINE
  5
A33
330
1F
100
AcDbEntity
  8
图层1
100
AcDbLine
 10
2772.069739490749
 20
7373.100739768027
 30
0.0
 11
2764.571860106431
 21
8299.351262926945
 31
0.0
  0
LINE
  5
A34
330
1F
100
AcDbEntity
  8
图层1
100
AcDbLine
 10
1521.404097023887
 20
7836.076453736159
 30
0.0
 11
2798.791189649959
 21
7809.518383151129
 31
0.0
  0
LINE
  5
A35
330
1F
100
AcDbEntity
  8
图层1
100
AcDbLine
 10
3452.317823470747
 20
8370.482012133702
 30
0.0
 11
3449.466154076335
 21
7182.922253104208
 31
0.0
  0
LINE
  5
A36
330
1F
100
AcDbEntity
  8
图层1
100
AcDbLine
 10
1817.073411850202
 20
7250.364132198727
 30
0.0
 11
3768.84796952893
 21
7197.161502515
 31
0.0
  0
LINE
  5
A37
330
1F
100
AcDbEntity
  8
图层1
100
AcDbLine
 10
3834.435193618179
 20
7296.836858078012
 30
0.0
 11
3703.260511043134
 21
7180.07431612384
 31
0.0
  0
LINE
  5
A38
330
1F
100
AcDbEntity
  8
图层1
100
AcDbLine
 10
3763.144630740049
 20
7268.358185059992
 30
0.0
 11
3971.3129805855
 21
7160.13927985053
 31
0.0
  0
LINE
  5
A39
330
1F
100
AcDbEntity
  8
图层1
100
AcDbLine
 10
3901.592875125004
 20
7176.592391337506
 30
0.0
 11
5164.178523788346
 21
7166.600921195514
 31
0.0
  0
LINE
  5
A3A
330
1F
100
AcDbEntity
  8
图层1
100
AcDbLine
 10
3780.665075605038
 20
8354.657836757054
 30
0.0
 11
3847.217076221249
 21
8093.913606917126
 31
0.0
  0
LINE
  5
A3B
330
1F
100
AcDbEntity
  8
图层1
100
AcDbLine
 10
3826.739483478597
 20
8211.504191469421
 30
0.0
 11
3816.500804305544
 21
7250.329292918284
 31
0.0
  0
LINE
  5
A3C
330
1F
100
AcDbEntity
  8
图层1
100
AcDbLine
 10
3401.831367840235
 20
8339.319930637232
 30
0.0
 11
3673.158358296672
 21
8283.080970564119
 31
0.0
  0
LINE
  5
A3D
330
1F
100
AcDbEntity
  8
图层1
100
AcDbLine
 10
3847.217076221249
 20
8329.094688923467
 30
0.0
 11
3575.890085764755
 21
8283.080970564119
 31
0.0
  0
LINE
  5
A3E
330
1F
100
AcDbEntity
  8
图层1
100
AcDbLine
 10
3632.203172811308
 20
8354.657836757054
 30
0.0
 11
3637.322629596166
 21
7756.479846478313
 31
0.0
  0
LINE
  5
A3F
330
1F
100
AcDbEntity
  8
图层1
100
AcDbLine
 10
3130.50437738374
 20
7644.001926332048
 30
0.0
 11
3488.860726802495
 21
7644.001926332048
 31
0.0
  0
LINE
  5
A40
330
1F
100
AcDbEntity
  8
图层1
100
AcDbLine
 10
3360.876182354872
 20
7776.930417004104
 30
0.0
 11
3473.502590844642
 21
7771.817752598106
 31
0.0
  0
LINE
  5
A41
330
1F
100
AcDbEntity
  8
图层1
100
AcDbLine
 10
3627.083950423172
 20
8497.811569142873
 30
0.0
 11
3401.831367840235
 21
8288.193634970104
 31
0.0
  0
LINE
  5
A42
330
1F
100
AcDbEntity
  8
图层1
100
AcDbLine
 10
3591.367998400297
 20
8499.025282575521
 30
0.0
 11
3862.694988856734
 21
8253.618871757213
 31
0.0
  0
LINE
  5
A43
330
1F
100
AcDbEntity
  8
图层1
100
AcDbLine
 10
3617.100763576281
 20
9395.422200513484
 30
0.0
 11
3617.100763576281
 21
8398.45882531681
 31
0.0
  0
LINE
  5
A44
330
1F
100
AcDbEntity
  8
图层1
100
AcDbLine
 10
1643.685685252989
 20
9594.926033225005
 30
0.0
 11
4144.384654303198
 21
10056.57358377626
 31
0.0
  0
LINE
  5
A45
330
1F
100
AcDbEntity
  8
图层1
100
AcDbLine
 10
3153.321610193992
 20
11196.42654487276
 30
0.0
 11
3647.805081263885
 21
9074.948114699385
 31
0.0
  0
LINE
  5
A46
330
1F
100
AcDbEntity
  8
图层1
100
AcDbLine
 10
3029.114335405875
 20
9015.385204885554
 30
0.0
 11
4118.787839172351
 21
9504.409311856891
 31
0.0
  0
LINE
  5
A47
330
1F
100
AcDbEntity
  8
图层1
100
AcDbLine
 10
4410.592187974894
 20
9514.634553570656
 30
0.0
 11
3965.206479593822
 21
9463.508257903528
 31
0.0
  0
LINE
  5
A48
330
1F
100
AcDbEntity
  8
图层1
100
AcDbLine
 10
4328.682285797434
 20
9688.464011097885
 30
0.0
 11
3811.625120015409
 21
9524.859795284449
 31
0.0
  0
LINE
  5
A49
330
1F
100
AcDbEntity
  8
图层1
100
AcDbLine
 10
3775.78962571145
 20
10010.5598654169
 30
0.0
 11
3883.296343019758
 21
9499.296647450908
 31
0.0
  0
LINE
  5
A4A
330
1F
100
AcDbEntity
  8
图层1
100
AcDbLine
 10
3878.17712063162
 20
9678.238769384108
 30
0.0
 11
3453.268770596654
 21
9596.436661477367
 31
0.0
  0
LINE
  5
A4B
330
1F
100
AcDbEntity
  8
图层1
100
AcDbLine
 10
4462.278285555193
 20
7735.300786598343
 30
0.0
 11
4367.309678355232
 21
6627.128860438581
 31
0.0
  0
LINE
  5
A4C
330
1F
100
AcDbEntity
  8
图层1
100
AcDbLine
 10
4367.309678355232
 20
6866.733572981805
 30
0.0
 11
4377.30646020663
 21
6347.589971072686
 31
0.0
  0
LINE
  5
A4D
330
1F
100
AcDbEntity
  8
图层1
100
AcDbLine
 10
3912.459737265077
 20
6602.16999992442
 30
0.0
 11
5197.036008914409
 21
6542.268821788622
 31
0.0
  0
LINE
  5
A4E
330
1F
100
AcDbEntity
  8
图层1
100
AcDbLine
 10
4712.19595666678
 20
6786.865306434677
 30
0.0
 11
4927.125008496748
 21
6692.021810677227
 31
0.0
  0
LINE
  5
A4F
330
1F
100
AcDbEntity
  8
图层1
100
AcDbLine
 10
4807.164563866682
 20
6721.972356196032
 30
0.0
 11
5287.006107990398
 21
6721.972356196032
 31
0.0
  0
LINE
  5
A50
330
1F
100
AcDbEntity
  8
图层1
100
AcDbLine
 10
4912.129952917982
 20
6731.955900401697
 30
0.0
 11
4927.125008496748
 21
6497.342959961319
 31
0.0
  0
LINE
  5
A51
330
1F
100
AcDbEntity
  8
图层1
100
AcDbLine
 10
4762.179397130444
 20
7705.350241079523
 30
0.0
 11
4762.179397130444
 21
7141.280690244883
 31
0.0
  0
LINE
  5
A52
330
1F
100
AcDbEntity
  8
图层1
100
AcDbLine
 10
4742.186067824253
 20
7385.877261989172
 30
0.0
 11
5197.036008914409
 21
7395.860719096633
 31
0.0
  0
LINE
  5
A53
330
1F
100
AcDbEntity
  8
图层1
100
AcDbLine
 10
5037.088671275474
 20
7420.81957961078
 30
0.0
 11
5042.086945002841
 21
7141.280690244883
 31
0.0
  0
LINE
  5
A54
330
1F
100
AcDbEntity
  8
图层1
100
AcDbLine
 10
5331.991274726695
 20
6806.832394846006
 30
0.0
 11
5282.00783426303
 21
6562.235910199965
 31
0.0
  0
LINE
  5
A55
330
1F
100
AcDbEntity
  8
图层1
100
AcDbLine
 10
5107.252723952232
 20
6066.53043421335
 30
0.0
 11
5157.236164415897
 21
6850.237696278117
 31
0.0
  0
LINE
  5
A56
330
1F
100
AcDbEntity
  8
图层1
100
AcDbLine
 10
5127.246053258307
 20
6680.517618978139
 30
0.0
 11
5337.176831360966
 21
6595.657580328164
 31
0.0
  0
LINE
  5
A57
330
1F
100
AcDbEntity
  8
图层1
100
AcDbLine
 10
5402.155327403395
 20
6540.748174295197
 30
0.0
 11
5422.14889110619
 21
6186.332877583166
 31
0.0
  0
LINE
  5
A58
330
1F
100
AcDbEntity
  8
图层1
100
AcDbLine
 10
5427.147164833558
 20
6415.954045920739
 30
0.0
 11
5272.198335318594
 21
6670.534074772475
 31
0.0
  0
LINE
  5
A59
330
1F
100
AcDbEntity
  8
图层1
100
AcDbLine
 10
4997.289061173507
 20
5447.551477345729
 30
0.0
 11
5127.246053258307
 21
6271.192829134951
 31
0.0
  0
LINE
  5
A5A
330
1F
100
AcDbEntity
  8
图层1
100
AcDbLine
 10
5517.117498306093
 20
5562.362148612727
 30
0.0
 11
5087.2593946461
 21
6276.184601237783
 31
0.0
  0
LINE
  5
A5B
330
1F
100
AcDbEntity
  8
图层1
100
AcDbLine
 10
6076.932828447608
 20
6281.176373340616
 30
0.0
 11
4607.417616125779
 21
5237.897310321312
 31
0.0
  0
LINE
  5
A5C
330
1F
100
AcDbEntity
  8
图层1
100
AcDbLine
 10
5712.474431573181
 20
5691.33002278506
 30
0.0
 11
5387.581716964488
 21
6325.284295961163
 31
0.0
  0
LINE
  5
A5D
330
1F
100
AcDbEntity
  8
图层1
100
AcDbLine
 10
5992.38221384224
 20
5481.675855760627
 30
0.0
 11
5652.494209258178
 21
5761.214745126538
 31
0.0
  0
LINE
  5
A5E
330
1F
100
AcDbEntity
  8
图层1
100
AcDbLine
 10
5907.410154097075
 20
5701.313566990725
 30
0.0
 11
5637.499153679413
 21
6245.416029414021
 31
0.0
  0
LINE
  5
A5F
330
1F
100
AcDbEntity
  8
图层1
100
AcDbLine
 10
5557.525602058217
 20
6914.312620211775
 30
0.0
 11
5677.486046688341
 21
6065.712495006597
 31
0.0
  0
LINE
  5
A60
330
1F
100
AcDbEntity
  8
图层1
100
AcDbLine
 10
5842.431658054644
 20
5761.214745126538
 30
0.0
 11
6117.340932199732
 21
5656.387705163409
 31
0.0
  0
LINE
  5
A61
330
1F
100
AcDbEntity
  8
图层1
100
AcDbLine
 10
6022.372324999771
 20
5721.280655402054
 30
0.0
 11
6292.28309102083
 21
5436.749993933311
 31
0.0
  0
LINE
  5
A62
330
1F
100
AcDbEntity
  8
图层1
100
AcDbLine
 10
6227.304594978458
 20
5461.708767349283
 30
0.0
 11
6767.126361417119
 21
5366.865271591834
 31
0.0
  0
LINE
  5
A63
330
1F
100
AcDbEntity
  8
图层1
100
AcDbLine
 10
6627.17258748092
 20
5356.881727386183
 30
0.0
 11
7226.974810631306
 21
5511.626488377621
 31
0.0
  0
LINE
  5
A64
330
1F
100
AcDbEntity
  8
图层1
100
AcDbLine
 10
5942.398538981972
 20
5746.239428818027
 30
0.0
 11
6197.314483820927
 21
5212.120510600396
 31
0.0
  0
LINE
  5
A65
330
1F
100
AcDbEntity
  8
图层1
100
AcDbLine
 10
6157.327590811998
 20
5262.038144530515
 30
0.0
 11
6337.268257757126
 21
5152.219332464582
 31
0.0
  0
LINE
  5
A66
330
1F
100
AcDbEntity
  8
图层1
100
AcDbLine
 10
6267.291487987271
 20
5167.194648773079
 30
0.0
 11
6547.199035859725
 21
5172.186420875911
 31
0.0
  0
LINE
  5
A67
330
1F
100
AcDbEntity
  8
图层1
100
AcDbLine
 10
6797.11647257465
 20
5356.881727386183
 30
0.0
 11
6477.222031693324
 21
5157.2111045674
 31
0.0
  0
LINE
  5
A68
330
1F
100
AcDbEntity
  8
图层1
100
AcDbLine
 10
6602.180984447421
 20
5282.005232941859
 30
0.0
 11
6797.11647257465
 21
5167.194648773079
 31
0.0
  0
LINE
  5
A69
330
1F
100
AcDbEntity
  8
图层1
100
AcDbLine
 10
6297.281599144802
 20
5107.293470637266
 30
0.0
 11
6712.144647226145
 21
5152.219332464582
 31
0.0
  0
LINE
  5
A6A
330
1F
100
AcDbEntity
  8
图层1
100
AcDbLine
 10
6877.090258592509
 20
5212.120510600396
 30
0.0
 11
6557.195817711124
 21
5117.276927744741
 31
0.0
  0
LINE
  5
A6B
330
1F
100
AcDbEntity
  8
图层1
100
AcDbLine
 10
6787.119925119916
 20
5192.153422189051
 30
0.0
 11
7032.039088107413
 21
5197.145194291884
 31
0.0
  0
LINE
  5
A6C
330
1F
100
AcDbEntity
  8
图层1
100
AcDbLine
 10
6947.067028362247
 20
5202.136966394716
 30
0.0
 11
7256.964921788837
 21
5117.276927744741
 31
0.0
  0
LINE
  5
A6D
330
1F
100
AcDbEntity
  8
图层1
100
AcDbLine
 10
5900.214646364796
 20
5785.126162673992
 30
0.0
 11
4979.49601302849
 21
4819.1808956473
 31
0.0
  0
LINE
  5
A6E
330
1F
100
AcDbEntity
  8
图层1
100
AcDbLine
 10
5723.510996873026
 20
5775.838271800695
 30
0.0
 11
5491.006416970166
 21
5571.50371450812
 31
0.0
  0
LINE
  5
A6F
330
1F
100
AcDbEntity
  8
图层1
100
AcDbLine
 10
5509.606727107137
 20
5664.383058732017
 30
0.0
 11
5252.301577423817
 21
5481.720275843186
 31
0.0
  0
LINE
  5
A70
330
1F
100
AcDbEntity
  8
图层1
100
AcDbLine
 10
5162.39968776703
 20
5701.53479642158
 30
0.0
 11
5475.50600225816
 21
5268.097827677329
 31
0.0
  0
LINE
  5
A71
330
1F
100
AcDbEntity
  8
图层1
100
AcDbLine
 10
4981.26453559805
 20
5530.772240752359
 30
0.0
 11
7425.883321628558
 21
3956.840419527352
 31
0.0
  0
LINE
  5
A72
330
1F
100
AcDbEntity
  8
图层1
100
AcDbLine
 10
5360.06191188522
 20
5476.17246882439
 30
0.0
 11
5297.579739946931
 21
5277.273448969373
 31
0.0
  0
LINE
  5
A73
330
1F
100
AcDbEntity
  8
图层1
100
AcDbLine
 10
4836.774718087749
 20
5452.772579012123
 30
0.0
 11
4778.197828393547
 21
4805.375569474509
 31
0.0
  0
LINE
  5
A74
330
1F
100
AcDbEntity
  8
图层1
100
AcDbLine
 10
4465.787671892031
 20
5370.873008218381
 30
0.0
 11
4365.856888045674
 21
4630.224396745242
 31
0.0
  0
LINE
  5
A75
330
1F
100
AcDbEntity
  8
图层1
100
AcDbLine
 10
4801.62858427124
 20
5261.673464362427
 30
0.0
 11
5110.13369292539
 21
5218.773680889664
 31
0.0
  0
LINE
  5
A76
330
1F
100
AcDbEntity
  8
图层1
100
AcDbLine
 10
4879.731181995828
 20
5277.273448969373
 30
0.0
 11
5035.936377444887
 21
5062.774357409235
 31
0.0
  0
LINE
  5
A77
330
1F
100
AcDbEntity
  8
图层1
100
AcDbLine
 10
5215.572094374977
 20
5129.074117792425
 30
0.0
 11
7273.967115706009
 21
3829.233019256591
 31
0.0
  0
LINE
  5
A78
330
1F
100
AcDbEntity
  8
图层1
100
AcDbLine
 10
6645.241754855554
 20
5174.726814108105
 30
0.0
 11
5301.375324568363
 21
3047.122702709477
 31
0.0
  0
LINE
  5
A79
330
1F
100
AcDbEntity
  8
图层1
100
AcDbLine
 10
8015.025654862752
 20
4330.599878316255
 30
0.0
 11
5945.903002989595
 21
5140.487291871341
 31
0.0
  0
LINE
  5
A7A
330
1F
100
AcDbEntity
  8
图层1
100
AcDbLine
 10
8618.564394683927
 20
5834.124997680458
 30
0.0
 11
7236.961279031007
 21
4946.264748631094
 31
0.0
  0
LINE
  5
A7B
330
1F
100
AcDbEntity
  8
图层1
100
AcDbLine
 10
7131.238788866439
 20
5123.836815860607
 30
0.0
 11
8476.799906784846
 21
5999.699026410501
 31
0.0
  0
LINE
  5
A7C
330
1F
100
AcDbEntity
  8
图层1
100
AcDbLine
 10
7844.86682805972
 20
5750.138292693159
 30
0.0
 11
7176.891751600139
 21
5356.600138901941
 31
0.0
  0
LINE
  5
A7D
330
1F
100
AcDbEntity
  8
图层1
100
AcDbLine
 10
7294.628241009546
 20
5615.759355677777
 30
0.0
 11
7582.962816505695
 21
5126.236458399774
 31
0.0
  0
LINE
  5
A7E
330
1F
100
AcDbEntity
  8
图层1
100
AcDbLine
 10
7491.656891038235
 20
5740.539722536448
 30
0.0
 11
8217.437457884372
 21
4676.287064293608
 31
0.0
  0
LINE
  5
A7F
330
1F
100
AcDbEntity
  8
图层1
100
AcDbLine
 10
7868.729576925574
 20
5921.885232231468
 30
0.0
 11
8026.550233945135
 21
5671.758447305027
 31
0.0
  0
LINE
  5
A80
330
1F
100
AcDbEntity
  8
图层1
100
AcDbLine
 10
8009.683990073099
 20
5974.664216264941
 30
0.0
 11
8286.71525690501
 21
5567.707365215731
 31
0.0
  0
LINE
  5
A81
330
1F
100
AcDbEntity
  8
图层1
100
AcDbLine
 10
8203.759711363414
 20
6024.117703881294
 30
0.0
 11
8269.075504155656
 21
5801.074191692639
 31
0.0
  0
LINE
  5
A82
330
1F
100
AcDbEntity
  8
图层1
100
AcDbLine
 10
8513.482744904353
 20
5517.009418501713
 30
0.0
 11
8237.47110341082
 21
5876.824803683416
 31
0.0
  0
LINE
  5
A83
330
1F
100
AcDbEntity
  8
图层1
100
AcDbLine
 10
8283.824208876819
 20
5784.240722361346
 30
0.0
 11
8420.776533972299
 21
5876.824803683416
 31
0.0
  0
LINE
  5
A84
330
1F
100
AcDbEntity
  8
图层1
100
AcDbLine
 10
8401.813846646053
 20
6036.742762330662
 30
0.0
 11
8399.706855343481
 21
5826.324395689565
 31
0.0
  0
LINE
  5
A85
330
1F
100
AcDbEntity
  8
图层1
100
AcDbLine
 10
8528.231449625515
 20
5748.469665356028
 30
0.0
 11
8378.637411111386
 21
5874.720598242454
 31
0.0
  0
LINE
  5
A86
330
1F
100
AcDbEntity
  8
图层1
100
AcDbLine
 10
8689.107232313954
 20
5424.491009223279
 30
0.0
 11
7427.693332401513
 21
4347.779824291608
 31
0.0
  0
LINE
  5
A87
330
1F
100
AcDbEntity
  8
图层1
100
AcDbLine
 10
8349.731149968635
 20
5468.260642430648
 30
0.0
 11
8479.107072808956
 21
5215.233487406779
 31
0.0
  0
LINE
  5
A88
330
1F
100
AcDbEntity
  8
图层1
100
AcDbLine
 10
7292.914098458074
 20
4998.545443855959
 30
0.0
 11
6043.22226304206
 21
3074.616902010316
 31
0.0
  0
LINE
  5
A89
330
1F
100
AcDbEntity
  8
图层1
100
AcDbLine
 10
5649.394695123949
 20
3225.889485032797
 30
0.0
 11
6737.676300093998
 21
4869.340139987359
 31
0.0
  0
LINE
  5
A8A
330
1F
100
AcDbEntity
  8
图层1
100
AcDbLine
 10
5730.179767207534
 20
2990.576626451836
 30
0.0
 11
7201.272985810473
 21
5197.737026568535
 31
0.0
  0
LINE
  5
A8B
330
1F
100
AcDbEntity
  8
图层1
100
AcDbLine
 10
6834.708300823347
 20
5063.148095790243
 30
0.0
 11
7206.663639495616
 21
4799.35386114338
 31
0.0
  0
LINE
  5
A8C
330
1F
100
AcDbEntity
  8
图层1
100
AcDbLine
 10
6985.646604007694
 20
5235.421892347169
 30
0.0
 11
6850.880261878834
 21
4982.394737323285
 31
0.0
  0
LINE
  5
A8D
330
1F
100
AcDbEntity
  8
图层1
100
AcDbLine
 10
6910.177452415521
 20
5138.517914445741
 30
0.0
 11
7174.319717384701
 21
5068.531635601718
 31
0.0
  0
LINE
  5
A8E
330
1F
100
AcDbEntity
  8
图层1
100
AcDbLine
 10
5433.958996456059
 20
5400.341070615692
 30
0.0
 11
6457.362074069388
 21
4707.833423053414
 31
0.0
  0
LINE
  5
A8F
330
1F
100
AcDbEntity
  8
图层1
100
AcDbLine
 10
7271.351483717445
 20
4352.518750316598
 30
0.0
 11
6322.595731940529
 21
4788.5867815204
 31
0.0
  0
LINE
  5
A90
330
1F
100
AcDbEntity
  8
图层1
100
AcDbLine
 10
7287.523444772874
 20
4659.381390553598
 30
0.0
 11
7341.429981624418
 21
4379.436536472237
 31
0.0
  0
LINE
  5
A91
330
1F
100
AcDbEntity
  8
图层1
100
AcDbLine
 10
7206.663639495616
 20
4551.710333029162
 30
0.0
 11
7637.916168704514
 21
4777.819614799203
 31
0.0
  0
LINE
  5
A92
330
1F
100
AcDbEntity
  8
图层1
100
AcDbLine
 10
6208.158728340525
 20
2926.705941612444
 30
0.0
 11
7319.867366883847
 21
4664.765017463277
 31
0.0
  0
LINE
  5
A93
330
1F
100
AcDbEntity
  8
图层1
100
AcDbLine
 10
6592.128650594853
 20
4460.189807841035
 30
0.0
 11
6726.894992723713
 21
4643.230771119129
 31
0.0
  0
LINE
  5
A94
330
1F
100
AcDbEntity
  8
图层1
100
AcDbLine
 10
6527.440806373023
 20
4664.765017463277
 30
0.0
 11
6597.519304279995
 21
4933.942791921644
 31
0.0
  0
LINE
  5
A95
330
1F
100
AcDbEntity
  8
图层1
100
AcDbLine
 10
7131.194487903442
 20
3711.87559658873
 30
0.0
 11
6354.939654051444
 21
4185.628493571163
 31
0.0
  0
LINE
  5
A96
330
1F
100
AcDbEntity
  8
图层1
100
AcDbLine
 10
4879.534757620248
 20
5053.398148959973
 30
0.0
 11
6171.65742875624
 21
4223.313359349796
 31
0.0
  0
LINE
  5
A97
330
1F
100
AcDbEntity
  8
图层1
100
AcDbLine
 10
5991.31078684883
 20
4328.644697897417
 30
0.0
 11
6588.488236542151
 21
4060.931653887372
 31
0.0
  0
LINE
  5
A98
330
1F
100
AcDbEntity
  8
图层1
100
AcDbLine
 10
6960.823766547431
 20
3774.744036240464
 30
0.0
 11
7293.561970742013
 21
4242.676247539949
 31
0.0
  0
LINE
  5
A99
330
1F
100
AcDbEntity
  8
图层1
100
AcDbLine
 10
7361.467611893546
 20
4208.768133958456
 30
0.0
 11
7381.839257359681
 21
3883.250017120842
 31
0.0
  0
LINE
  5
A9A
330
1F
100
AcDbEntity
  8
图层1
100
AcDbLine
 10
7422.582782688611
 20
4269.802808083685
 30
0.0
 11
7694.205581691466
 21
4147.733459833213
 31
0.0
  0
LINE
  5
A9B
330
1F
100
AcDbEntity
  8
图层1
100
AcDbLine
 10
6791.059429271903
 20
3367.84641196799
 30
0.0
 11
7992.990965310311
 21
4059.572312262438
 31
0.0
  0
LINE
  5
A9C
330
1F
100
AcDbEntity
  8
图层1
100
AcDbLine
 10
8414.006456122562
 20
4242.676247539949
 30
0.0
 11
7758.364861513839
 21
3934.317956993245
 31
0.0
  0
LINE
  5
A9D
330
1F
100
AcDbEntity
  8
图层1
100
AcDbLine
 10
7918.294619405584
 20
4398.653709371898
 30
0.0
 11
8135.592952366513
 21
4147.733459833213
 31
0.0
  0
LINE
  5
A9E
330
1F
100
AcDbEntity
  8
图层1
100
AcDbLine
 10
8723.873545664655
 20
2717.703628355831
 30
0.0
 11
8054.106136105316
 21
4283.366001257357
 31
0.0
  0
LINE
  5
A9F
330
1F
100
AcDbEntity
  8
图层1
100
AcDbLine
 10
8859.410447440694
 20
3602.488356109364
 30
0.0
 11
8162.755302585837
 21
4480.033216806758
 31
0.0
  0
LINE
  5
AA0
330
1F
100
AcDbEntity
  8
图层1
100
AcDbLine
 10
7968.783419002488
 20
2689.096227480627
 30
0.0
 11
7350.258530674387
 21
4051.397188006701
 31
0.0
  0
LINE
  5
AA1
330
1F
100
AcDbEntity
  8
图层1
100
AcDbLine
 10
6765.16750878445
 20
3490.449759289569
 30
0.0
 11
7229.897033411312
 21
2819.316138294137
 31
0.0
  0
LINE
  5
AA2
330
1F
100
AcDbEntity
  8
图层1
100
AcDbLine
 10
7052.697869444732
 20
3026.332449199316
 30
0.0
 11
8490.350375936019
 21
3717.499875828134
 31
0.0
  0
LINE
  5
AA3
330
1F
100
AcDbEntity
  8
图层1
100
AcDbLine
 10
9443.604199032941
 20
4446.427072688563
 30
0.0
 11
8407.157152212052
 21
3668.446343151362
 31
0.0
  0
LINE
  5
AA4
330
1F
100
AcDbEntity
  8
图层1
100
AcDbLine
 10
7812.959586869578
 20
4004.717690997965
 30
0.0
 11
8204.641042690319
 21
3192.944340093939
 31
0.0
  0
LINE
  5
AA5
330
1F
100
AcDbEntity
  8
图层1
100
AcDbLine
 10
9038.518771954464
 20
3473.302823532435
 30
0.0
 11
8766.539455678083
 21
3698.549397620334
 31
0.0
  0
LINE
  5
AA6
330
1F
100
AcDbEntity
  8
图层1
100
AcDbLine
 10
8889.261795793546
 20
3638.925365960492
 30
0.0
 11
8587.43113116437
 21
3393.804027554453
 31
0.0
  0
LINE
  5
AA7
330
1F
100
AcDbEntity
  8
图层1
100
AcDbLine
 10
7400.009918474885
 20
2877.061897246725
 30
0.0
 11
8736.68810732529
 21
3489.865069065408
 31
0.0
  0
LINE
  5
AA8
330
1F
100
AcDbEntity
  8
图层1
100
AcDbLine
 10
7071.644852196799
 20
3797.922957916443
 30
0.0
 11
7512.781652874955
 21
2771.063473576699
 31
0.0
  0
LINE
  5
AA9
330
1F
100
AcDbEntity
  8
图层1
100
AcDbLine
 10
7867.681355198439
 20
2774.375992361839
 30
0.0
 11
8962.231810522034
 21
3221.556708850684
 31
0.0
  0
LINE
  5
AAA
330
1F
100
AcDbEntity
  8
图层1
100
AcDbLine
 10
9463.07154230244
 20
3625.675552114485
 30
0.0
 11
8832.875811395179
 21
3148.682776246618
 31
0.0
  0
LINE
  5
AAB
330
1F
100
AcDbEntity
  8
图层1
100
AcDbLine
 10
8597.381736879762
 20
3519.67712844443
 30
0.0
 11
8663.7180925968
 21
3304.367936515618
 31
0.0
  0
LINE
  5
AAC
330
1F
100
AcDbEntity
  8
图层1
100
AcDbLine
 10
8667.034804904137
 20
3380.554300806621
 30
0.0
 11
8468.025737752908
 21
3181.807267312591
 31
0.0
  0
LINE
  5
AAD
330
1F
100
AcDbEntity
  8
图层1
100
AcDbLine
 10
8498.721617161821
 20
3174.259163006752
 30
0.0
 11
8748.797740394891
 21
3279.41560836652
 31
0.0
  0
LINE
  5
AAE
330
1F
100
AcDbEntity
  8
图层1
100
AcDbLine
 10
8870.545224928298
 20
3246.554240966162
 30
0.0
 11
9127.202033534473
 21
2701.055245986009
 31
0.0
  0
LINE
  5
AAF
330
1F
100
AcDbEntity
  8
图层1
100
AcDbLine
 10
8972.616518795259
 20
3546.655970439072
 30
0.0
 11
9382.478714786181
 21
2956.596577683555
 31
0.0
  0
LINE
  5
AB0
330
1F
100
AcDbEntity
  8
图层1
100
AcDbLine
 10
9611.008396646068
 20
3436.406544866772
 30
0.0
 11
9226.313366764109
 21
3136.373884267339
 31
0.0
  0
LINE
  5
AB1
330
1F
100
AcDbEntity
  8
图层1
100
AcDbLine
 10
9175.020821124723
 20
4040.13077439668
 30
0.0
 11
8753.688191672731
 21
3652.283704165127
 31
0.0
  0
LINE
  5
AB2
330
1F
100
AcDbEntity
  8
图层1
100
AcDbLine
 10
9617.582555447881
 20
3048.327675920043
 30
0.0
 11
8615.623185776991
 21
4369.490270296669
 31
0.0
  0
LINE
  5
AB3
330
1F
100
AcDbEntity
  8
图层1
100
AcDbLine
 10
8312.660854220567
 20
4965.971587617478
 30
0.0
 11
8705.069173989354
 21
4231.175713965295
 31
0.0
  0
LINE
  5
AB4
330
1F
100
AcDbEntity
  8
图层1
100
AcDbLine
 10
8872.419694774379
 20
4510.686296415825
 30
0.0
 11
8451.157853104467
 21
4043.874864768401
 31
0.0
  0
LINE
  5
AB5
330
1F
100
AcDbEntity
  8
图层1
100
AcDbLine
 10
8722.38124025066
 20
4925.629878311743
 30
0.0
 11
8179.934700354875
 21
4349.319372094707
 31
0.0
  0
LINE
  5
AB6
330
1F
100
AcDbEntity
  8
图层1
100
AcDbLine
 10
5578.227512375336
 20
5684.815251537355
 30
0.0
 11
6058.262668114971
 21
5215.441913402062
 31
0.0
  0
LINE
  5
AB7
330
1F
100
AcDbEntity
  8
图层1
100
AcDbLine
 10
6361.548232623435
 20
5103.113279572518
 30
0.0
 11
5967.40490900312
 21
5278.58645435132
 31
0.0
  0
LINE
  5
AB8
330
1F
100
AcDbEntity
  8
图层1
100
AcDbLine
 10
5947.794349392935
 20
5538.386888083861
 30
0.0
 11
6184.799110185589
 21
5149.248238627833
 31
0.0
  0
LINE
  5
AB9
330
1F
100
AcDbEntity
  8
图层1
100
AcDbLine
 10
5927.709136608058
 20
5550.422030417006
 30
0.0
 11
5584.252912133177
 21
5107.125022716301
 31
0.0
  0
LINE
  5
ABA
330
1F
100
AcDbEntity
  8
图层1
100
AcDbLine
 10
6070.32120271941
 20
5383.745251362537
 30
0.0
 11
5326.561476804375
 21
4455.765393420302
 31
0.0
  0
LINE
  5
ABB
330
1F
100
AcDbEntity
  8
图层1
100
AcDbLine
 10
5481.826272975887
 20
5608.402606119828
 30
0.0
 11
5987.972275654903
 21
5114.958809121808
 31
0.0
  0
LINE
  5
ABC
330
1F
100
AcDbEntity
  8
图层1
100
AcDbLine
 10
4253.824675011682
 20
3822.763016484289
 30
0.0
 11
4751.022117566434
 21
3491.734631952544
 31
0.0
  0
LINE
  5
ABD
330
1F
100
AcDbEntity
  8
图层1
100
AcDbLine
 10
5241.84537817858
 20
4876.324370539112
 30
0.0
 11
4081.940689015552
 21
3104.159221010287
 31
0.0
  0
LINE
  5
ABE
330
1F
100
AcDbEntity
  8
图层1
100
AcDbLine
 10
4800.828822971439
 20
4603.405467047855
 30
0.0
 11
4260.679838837882
 21
3760.311080430348
 31
0.0
  0
LINE
  5
ABF
330
1F
100
AcDbEntity
  8
图层1
100
AcDbLine
 10
3988.816548893113
 20
3888.91871644282
 30
0.0
 11
3416.473187698344
 21
3956.794954266375
 31
0.0
  0
LINE
  5
AC0
330
1F
100
AcDbEntity
  8
图层1
100
AcDbLine
 10
2858.438334354492
 20
3824.614898436591
 30
0.0
 11
2955.021231141758
 21
4053.250637726615
 31
0.0
  0
LINE
  5
AC1
330
1F
100
AcDbEntity
  8
图层1
100
AcDbLine
 10
2915.672600154999
 20
4003.236586087824
 30
0.0
 11
3094.529885878555
 21
4049.678217909318
 31
0.0
  0
LINE
  5
AC2
330
1F
100
AcDbEntity
  8
图层1
100
AcDbLine
 10
2997.946989091289
 20
4038.960958457368
 30
0.0
 11
3896.280688259345
 21
3965.993486605241
 31
0.0
  0
LINE
  5
AC3
330
1F
100
AcDbEntity
  8
图层1
100
AcDbLine
 10
3995.970802818601
 20
4253.306931379968
 30
0.0
 11
4893.834592795932
 21
3678.145076239341
 31
0.0
  0
LINE
  5
AC4
330
1F
100
AcDbEntity
  8
图层1
100
AcDbLine
 10
4000.761869925542
 20
2462.289027825017
 30
0.0
 11
5465.911913816236
 21
4636.153868081387
 31
0.0
  0
LINE
  5
AC5
330
1F
100
AcDbEntity
  8
图层1
100
AcDbLine
 10
4653.421939407069
 20
4659.010787707802
 30
0.0
 11
5929.374290264038
 21
3847.591403893157
 31
0.0
  0
LINE
  5
AC6
330
1F
100
AcDbEntity
  8
图层1
100
AcDbLine
 10
6827.690465736262
 20
3441.881711985848
 30
0.0
 11
5774.886753315922
 21
3933.304743619553
 31
0.0
  0
LINE
  5
AC7
330
1F
100
AcDbEntity
  8
图层1
100
AcDbLine
 10
6987.899624410435
 20
3590.451471812198
 30
0.0
 11
5884.236062528683
 21
4128.287131566383
 31
0.0
  0
LINE
  5
AC8
330
1F
100
AcDbEntity
  8
图层1
100
AcDbLine
 10
6039.178797731294
 20
4043.884271374122
 30
0.0
 11
4751.604593190656
 21
4882.971879445326
 31
0.0
  0
LINE
  5
AC9
330
1F
100
AcDbEntity
  8
图层1
100
AcDbLine
 10
4619.198859517521
 20
4823.889859891079
 30
0.0
 11
4827.667237048737
 21
4860.46439780179
 31
0.0
  0
LINE
  5
ACA
330
1F
100
AcDbEntity
  8
图层1
100
AcDbLine
 10
4371.290436314012
 20
4882.971879445326
 30
0.0
 11
4712.164547518362
 21
4823.889859891079
 31
0.0
  0
LINE
  5
ACB
330
1F
100
AcDbEntity
  8
图层1
100
AcDbLine
 10
4661.455883883057
 20
4857.650951709079
 30
0.0
 11
4683.993119809136
 21
4618.509427399422
 31
0.0
  0
LINE
  5
ACC
330
1F
100
AcDbEntity
  8
图层1
100
AcDbLine
 10
5041.770040759701
 20
4854.837505616354
 30
0.0
 11
4545.95319435274
 21
4626.949765677583
 31
0.0
  0
LINE
  5
ACD
330
1F
100
AcDbEntity
  8
图层1
100
AcDbLine
 10
3985.342087654107
 20
4204.935290519778
 30
0.0
 11
4664.273096972961
 21
4694.472036411758
 31
0.0
  0
LINE
  5
ACE
330
1F
100
AcDbEntity
  8
图层1
100
AcDbLine
 10
4365.656244530809
 20
4697.285482504468
 30
0.0
 11
4393.827437843429
 21
4545.360264479798
 31
0.0
  0
LINE
  5
ACF
330
1F
100
AcDbEntity
  8
图层1
100
AcDbLine
 10
4376.924628097157
 20
4587.561694575944
 30
0.0
 11
5771.65137663897
 21
3683.369139244581
 31
0.0
  0
LINE
  5
AD0
330
1F
100
AcDbEntity
  8
图层1
100
AcDbLine
 10
6529.462477302413
 20
3368.26500592259
 30
0.0
 11
5616.70864143636
 21
3773.398891622278
 31
0.0
  0
LINE
  5
AD1
330
1F
100
AcDbEntity
  8
图层1
100
AcDbLine
 10
6363.261671985092
 20
5006.495767654564
 30
0.0
 11
5270.847038749548
 21
3269.016344446883
 31
0.0
  0
LINE
  5
AD2
330
1F
100
AcDbEntity
  8
图层1
100
AcDbLine
 10
6214.825787217299
 20
5055.140896866292
 30
0.0
 11
5083.267854442413
 21
3282.52483995025
 31
0.0
  0
LINE
  5
AD3
330
1F
100
AcDbEntity
  8
图层1
100
AcDbLine
 10
6146.895065626363
 20
5249.674641979135
 30
0.0
 11
5147.392912356824
 21
3697.852002323916
 31
0.0
  0
LINE
  5
AD4
330
1F
100
AcDbEntity
  8
图层1
100
AcDbLine
 10
4162.608757849958
 20
4385.367923968811
 30
0.0
 11
5576.499540422695
 21
3451.209493835243
 31
0.0
  0
LINE
  5
AD5
330
1F
100
AcDbEntity
  8
图层1
100
AcDbLine
 10
4462.057249533596
 20
4385.367923968811
 30
0.0
 11
5428.318913584401
 21
3762.595666245839
 31
0.0
  0
LINE
  5
AD6
330
1F
100
AcDbEntity
  8
图层1
100
AcDbLine
 10
5150.480150363875
 20
4206.552181525451
 30
0.0
 11
5675.286703113759
 21
3873.584816840292
 31
0.0
  0
LINE
  5
AD7
330
1F
100
AcDbEntity
  8
图层1
100
AcDbLine
 10
5520.93183465791
 20
3704.01811947252
 30
0.0
 11
5659.851216268144
 21
3571.447776603488
 31
0.0
  0
LINE
  5
AD8
330
1F
100
AcDbEntity
  8
图层1
100
AcDbLine
 10
5576.499540422695
 20
3519.036172782352
 30
0.0
 11
5770.986862194318
 21
3358.71860758837
 31
0.0
  0
LINE
  5
AD9
330
1F
100
AcDbEntity
  8
图层1
100
AcDbLine
 10
5233.831826209383
 20
3552.949512255906
 30
0.0
 11
5400.534943503735
 21
3441.960448759657
 31
0.0
  0
LINE
  5
ADA
330
1F
100
AcDbEntity
  8
图层1
100
AcDbLine
 10
5178.263886047994
 20
3472.790773208025
 30
0.0
 11
5351.141479356506
 21
3358.71860758837
 31
0.0
  0
LINE
  5
ADB
330
1F
100
AcDbEntity
  8
图层1
100
AcDbLine
 10
4764.592744827679
 20
3404.964094260916
 30
0.0
 11
4934.383334525745
 21
3469.707758182825
 31
0.0
  0
LINE
  5
ADC
330
1F
100
AcDbEntity
  8
图层1
100
AcDbLine
 10
4860.292903908296
 20
3460.458626009034
 30
0.0
 11
5196.786610900659
 21
3432.711316585866
 31
0.0
  0
LINE
  5
ADD
330
1F
100
AcDbEntity
  8
图层1
100
AcDbLine
 10
4715.199280680507
 20
3556.032614379311
 30
0.0
 11
4878.815394364298
 21
3491.288950457388
 31
0.0
  0
LINE
  5
ADE
330
1F
100
AcDbEntity
  8
图层1
100
AcDbLine
 10
4844.857417062683
 20
3525.202289930942
 30
0.0
 11
4900.425122827467
 21
3420.379256485093
 31
0.0
  0
LINE
  5
ADF
330
1F
100
AcDbEntity
  8
图层1
100
AcDbLine
 10
4767.679982834787
 20
3771.84479841963
 30
0.0
 11
4622.586359606998
 21
3540.617452155134
 31
0.0
  0
LINE
  5
AE0
330
1F
100
AcDbEntity
  8
图层1
100
AcDbLine
 10
4687.415310599726
 20
3830.422345192933
 30
0.0
 11
4548.495928989491
 21
3608.444131102228
 31
0.0
  0
LINE
  5
AE1
330
1F
100
AcDbEntity
  8
图层1
100
AcDbLine
 10
4980.029030963954
 20
4850.41535574888
 30
0.0
 11
6034.028166194739
 21
4161.521453463985
 31
0.0
  0
LINE
  5
AE2
330
1F
100
AcDbEntity
  8
图层1
100
AcDbLine
 10
5744.600599215367
 20
4657.717727813903
 30
0.0
 11
6173.918184247742
 21
4387.941153222816
 31
0.0
  0
LINE
  5
AE3
330
1F
100
AcDbEntity
  8
图层1
100
AcDbLine
 10
6087.089937593556
 20
4462.611399126884
 30
0.0
 11
6007.497280495359
 21
4298.81852860982
 31
0.0
  0
LINE
  5
AE4
330
1F
100
AcDbEntity
  8
图层1
100
AcDbLine
 10
4766.686141125684
 20
4745.510972583161
 30
0.0
 11
5316.609464709241
 21
4375.332904726271
 31
0.0
  0
LINE
  5
AE5
330
1F
100
AcDbEntity
  8
图层1
100
AcDbLine
 10
5219.385258743656
 20
4602.901429757945
 30
0.0
 11
5061.396304944124
 21
4375.332904726271
 31
0.0
  0
LINE
  5
AE6
330
1F
100
AcDbEntity
  8
图层1
100
AcDbLine
 10
4438.493590766972
 20
4068.077190307599
 30
0.0
 11
4912.46045216563
 21
3761.61825023282
 31
0.0
  0
LINE
  5
AE7
330
1F
100
AcDbEntity
  8
图层1
100
AcDbLine
 10
5164.635128422524
 20
3958.844287840625
 30
0.0
 11
5049.18166218442
 21
3776.789450395654
 31
0.0
  0
LINE
  5
AE8
330
1F
100
AcDbEntity
  8
图层1
100
AcDbLine
 10
7344.190939523281
 20
4451.373815021423
 30
0.0
 11
7219.622725950554
 21
4339.106672521874
 31
0.0
  0
LINE
  5
AE9
330
1F
100
AcDbEntity
  8
图层1
100
AcDbLine
 10
7237.852220619739
 20
4399.791647369614
 30
0.0
 11
7271.272960846546
 21
4160.086162207682
 31
0.0
  0
LINE
  5
AEA
330
1F
100
AcDbEntity
  8
图层1
100
AcDbLine
 10
7243.928718842799
 20
4220.771049957188
 30
0.0
 11
7398.879423530832
 21
4141.880634914069
 31
0.0
  0
LINE
  5
AEB
330
1F
100
AcDbEntity
  8
图层1
100
AcDbLine
 10
7508.256391545875
 20
4245.045057315922
 30
0.0
 11
7350.267437746342
 21
4138.846394881494
 31
0.0
  0
LINE
  5
AEC
330
1F
100
AcDbEntity
  8
图层1
100
AcDbLine
 10
7462.682654872946
 20
4417.997087564994
 30
0.0
 11
7493.065145988251
 21
4208.634089826931
 31
0.0
  0
LINE
  5
AED
330
1F
100
AcDbEntity
  8
图层1
100
AcDbLine
 10
7298.61720285035
 20
4448.339574988849
 30
0.0
 11
7499.141644211312
 21
4387.654687239328
 31
0.0
  0
LINE
  5
AEE
330
1F
100
AcDbEntity
  8
图层1
100
AcDbLine
 10
3778.858346384893
 20
4163.011964979833
 30
0.0
 11
4064.453762868653
 21
4244.936620055528
 31
0.0
  0
LINE
  5
AEF
330
1F
100
AcDbEntity
  8
图层1
100
AcDbLine
 10
3007.14283765969
 20
4251.005100120649
 30
0.0
 11
3848.73807595001
 21
4175.148925110091
 31
0.0
  0
LINE
  5
AF0
330
1F
100
AcDbEntity
  8
图层1
100
AcDbLine
 10
3827.470332169325
 20
4748.621684836315
 30
0.0
 11
3806.20258838864
 21
4141.772284751865
 31
0.0
  0
LINE
  5
AF1
330
1F
100
AcDbEntity
  8
图层1
100
AcDbLine
 10
3441.612460608421
 20
4475.539385119748
 30
0.0
 11
4173.830730883696
 21
4445.196984794112
 31
0.0
  0
LINE
  5
AF2
330
1F
100
AcDbEntity
  8
图层1
100
AcDbLine
 10
4116.103997764644
 20
4466.436665022052
 30
0.0
 11
4225.480965779746
 21
4326.861275131207
 31
0.0
  0
LINE
  5
AF3
330
1F
100
AcDbEntity
  8
图层1
100
AcDbLine
 10
4131.266881330114
 20
4412.922920563889
 30
0.0
 11
4228.918157954643
 21
5898.558330711768
 31
0.0
  0
LINE
  5
AF4
330
1F
100
AcDbEntity
  8
图层1
100
AcDbLine
 10
3869.137614615089
 20
5137.487020137229
 30
0.0
 11
4959.907252304839
 21
5026.642626753023
 31
0.0
  0
LINE
  5
AF5
330
1F
100
AcDbEntity
  8
图层1
100
AcDbLine
 10
3884.180721502927
 20
5099.834903282205
 30
0.0
 11
3918.620149481519
 21
5845.978627362453
 31
0.0
  0
LINE
  5
AF6
330
1F
100
AcDbEntity
  8
图层1
100
AcDbLine
 10
3555.030192119362
 20
5876.556367027563
 30
0.0
 11
3979.856268937352
 21
5815.400887697357
 31
0.0
  0
LINE
  5
AF7
330
1F
100
AcDbEntity
  8
图层1
100
AcDbLine
 10
4904.606615461585
 20
5796.289800406671
 30
0.0
 11
3853.55656746257
 21
5823.045322613635
 31
0.0
  0
LINE
  5
AF8
330
1F
100
AcDbEntity
  8
图层1
100
AcDbLine
 10
3899.48377425282
 20
5803.934235322948
 30
0.0
 11
3903.311002419215
 21
6147.933980751714
 31
0.0
  0
LINE
  5
AF9
330
1F
100
AcDbEntity
  8
图层1
100
AcDbLine
 10
3941.583752876615
 20
5800.112017864817
 30
0.0
 11
3945.410981043011
 21
6140.289545835451
 31
0.0
  0
LINE
  5
AFA
330
1F
100
AcDbEntity
  8
图层1
100
AcDbLine
 10
3547.375735786512
 20
6132.64511091916
 30
0.0
 11
4335.791535570054
 21
6082.956196865173
 31
0.0
  0
LINE
  5
AFB
330
1F
100
AcDbEntity
  8
图层1
100
AcDbLine
 10
4385.545970526699
 20
6469.000421431663
 30
0.0
 11
4201.837377762422
 21
5735.13432107648
 31
0.0
  0
LINE
  5
AFC
330
1F
100
AcDbEntity
  8
图层1
100
AcDbLine
 10
4232.455437490368
 20
6304.644983633557
 30
0.0
 11
4370.237057861058
 21
6304.644983633557
 31
0.0
  0
LINE
  5
AFD
330
1F
100
AcDbEntity
  8
图层1
100
AcDbLine
 10
4259.246269051917
 20
6377.267115338171
 30
0.0
 11
4263.073731614976
 21
6262.600504495834
 31
0.0
  0
LINE
  5
AFE
330
1F
100
AcDbEntity
  8
图层1
100
AcDbLine
 10
4274.555416114163
 20
6331.40050584052
 30
0.0
 11
4217.146524824726
 21
6174.689502958679
 31
0.0
  0
LINE
  5
AFF
330
1F
100
AcDbEntity
  8
图层1
100
AcDbLine
 10
4232.455437490368
 20
6258.778287037703
 30
0.0
 11
4217.146524824726
 21
6063.845109574486
 31
0.0
  0
LINE
  5
B00
330
1F
100
AcDbEntity
  8
图层1
100
AcDbLine
 10
3941.5865656361
 20
6079.607706522952
 30
0.0
 11
3995.168228759199
 21
6821.118241794412
 31
0.0
  0
LINE
  5
B01
330
1F
100
AcDbEntity
  8
图层1
100
AcDbLine
 10
3593.305755336363
 20
6389.20749482849
 30
0.0
 11
3995.168228759199
 21
6347.163102788986
 31
0.0
  0
LINE
  5
B02
330
1F
100
AcDbEntity
  8
图层1
100
AcDbLine
 10
3574.169380107605
 20
5980.230052611387
 30
0.0
 11
3922.450190407459
 21
5949.652312946292
 31
0.0
  0
LINE
  5
B03
330
1F
100
AcDbEntity
  8
图层1
100
AcDbLine
 10
3562.687461211755
 20
5754.719048384873
 30
0.0
 11
3933.931874906704
 21
5716.4968738035
 31
0.0
  0
LINE
  5
B04
330
1F
100
AcDbEntity
  8
图层1
100
AcDbLine
 10
3777.014113703977
 20
5869.385659227196
 30
0.0
 11
3773.186885537581
 21
5716.4968738035
 31
0.0
  0
LINE
  5
B05
330
1F
100
AcDbEntity
  8
图层1
100
AcDbLine
 10
1836.458247506119
 20
5539.639011823213
 30
0.0
 11
4779.622256710951
 21
5306.483659778624
 31
0.0
  0
LINE
  5
B06
330
1F
100
AcDbEntity
  8
图层1
100
AcDbLine
 10
3474.531826444787
 20
4739.020588831791
 30
0.0
 11
3861.085387202039
 21
4681.687326959731
 31
0.0
  0
LINE
  5
B07
330
1F
100
AcDbEntity
  8
图层1
100
AcDbLine
 10
3688.85847893695
 20
4914.842679004291
 30
0.0
 11
3776.885664350995
 21
4731.376153915514
 31
0.0
  0
LINE
  5
B08
330
1F
100
AcDbEntity
  8
图层1
100
AcDbLine
 10
3734.7856857272
 20
4792.531720343909
 30
0.0
 11
3876.394299867681
 21
4658.754022210898
 31
0.0
  0
LINE
  5
B09
330
1F
100
AcDbEntity
  8
图层1
100
AcDbLine
 10
2552.161868853612
 20
4911.020461546175
 30
0.0
 11
3543.422636630074
 21
4811.642807634595
 31
0.0
  0
LINE
  5
B0A
330
1F
100
AcDbEntity
  8
图层1
100
AcDbLine
 10
3093.344307726542
 20
4792.382869518191
 30
0.0
 11
3111.709986837524
 21
5556.602867161583
 31
0.0
  0
LINE
  5
B0B
330
1F
100
AcDbEntity
  8
图层1
100
AcDbLine
 10
2544.898012233958
 20
5114.051890067543
 30
0.0
 11
3399.435599890131
 21
5067.502047766237
 31
0.0
  0
LINE
  5
B0C
330
1F
100
AcDbEntity
  8
图层1
100
AcDbLine
 10
3350.461002519879
 20
5110.298358576057
 30
0.0
 11
3333.845782857564
 21
4695.459071948474
 31
0.0
  0
LINE
  5
B0D
330
1F
100
AcDbEntity
  8
图层1
100
AcDbLine
 10
3356.80565048702
 20
5383.542312553913
 30
0.0
 11
3335.327887326306
 21
5645.226680376747
 31
0.0
  0
LINE
  5
B0E
330
1F
100
AcDbEntity
  8
图层1
100
AcDbLine
 10
3378.283648044396
 20
5610.907376187742
 30
0.0
 11
3034.638265489486
 21
5623.777180582275
 31
0.0
  0
LINE
  5
B0F
330
1F
100
AcDbEntity
  8
图层1
100
AcDbLine
 10
3103.367342000479
 20
5336.353378166784
 30
0.0
 11
3227.932039623733
 21
6882.405239408317
 31
0.0
  0
LINE
  5
B10
330
1F
100
AcDbEntity
  8
图层1
100
AcDbLine
 10
2265.725202866541
 20
6320.427351873679
 30
0.0
 11
3700.444235539706
 21
6110.221940334338
 31
0.0
  0
LINE
  5
B11
330
1F
100
AcDbEntity
  8
图层1
100
AcDbLine
 10
3595.831144622529
 20
6921.18693283371
 30
0.0
 11
3646.575202148875
 21
6414.416762670885
 31
0.0
  0
LINE
  5
B12
330
1F
100
AcDbEntity
  8
图层1
100
AcDbLine
 10
3639.645500194458
 20
6575.341228130321
 30
0.0
 11
3372.508583886842
 21
2555.095993443761
 31
0.0
  0
LINE
  5
B13
330
1F
100
AcDbEntity
  8
图层1
100
AcDbLine
 10
3101.615461591633
 20
4953.810936776489
 30
0.0
 11
2906.232510298666
 21
2941.64233913973
 31
0.0
  0
LINE
  5
B14
330
1F
100
AcDbEntity
  8
图层1
100
AcDbLine
 10
2525.798576744333
 20
4567.732743911595
 30
0.0
 11
3098.337190331427
 21
4533.877063447177
 31
0.0
  0
LINE
  5
B15
330
1F
100
AcDbEntity
  8
图层1
100
AcDbLine
 10
2503.198288124929
 20
4236.6997431752
 30
0.0
 11
3055.762324136276
 21
4147.296313961769
 31
0.0
  0
LINE
  5
B16
330
1F
100
AcDbEntity
  8
图层1
100
AcDbLine
 10
2861.033808232927
 20
4184.33856921252
 30
0.0
 11
2859.179262100313
 21
3884.296153614565
 31
0.0
  0
LINE
  5
B17
330
1F
100
AcDbEntity
  8
图层1
100
AcDbLine
 10
2605.689855148494
 20
5782.912823187017
 30
0.0
 11
2557.87294273131
 21
3998.114340879726
 31
0.0
  0
LINE
  5
B18
330
1F
100
AcDbEntity
  8
图层1
100
AcDbLine
 10
2932.075441890514
 20
5663.577487469815
 30
0.0
 11
3105.896716029385
 21
5612.657091950129
 31
0.0
  0
LINE
  5
B19
330
1F
100
AcDbEntity
  8
图层1
100
AcDbLine
 10
2832.417964514114
 20
5640.431837306667
 30
0.0
 11
3003.928791076063
 21
5654.528245667611
 31
0.0
  0
LINE
  5
B1A
330
1F
100
AcDbEntity
  8
图层1
100
AcDbLine
 10
2846.330810854504
 20
5612.866127632825
 30
0.0
 11
2846.330810854504
 21
5885.984486004662
 31
0.0
  0
LINE
  5
B1B
330
1F
100
AcDbEntity
  8
图层1
100
AcDbLine
 10
2830.107516937134
 20
5860.524288244812
 30
0.0
 11
3064.18677339703
 21
5848.951463163238
 31
0.0
  0
LINE
  5
B1C
330
1F
100
AcDbEntity
  8
图层1
100
AcDbLine
 10
3034.057665038215
 20
5879.040756116436
 30
0.0
 11
3034.057665038215
 21
5728.594204252256
 31
0.0
  0
LINE
  5
B1D
330
1F
100
AcDbEntity
  8
图层1
100
AcDbLine
 10
3015.516891645094
 20
5793.401972450205
 30
0.0
 11
3082.727546790151
 21
5705.448641187283
 31
0.0
  0
LINE
  5
B1E
330
1F
100
AcDbEntity
  8
图层1
100
AcDbLine
 10
3068.82196674531
 20
5744.796211625396
 30
0.0
 11
3071.139680617781
 21
5541.114716644869
 31
0.0
  0
LINE
  5
B1F
330
1F
100
AcDbEntity
  8
图层1
100
AcDbLine
 10
2485.927475670354
 20
6898.654018515464
 30
0.0
 11
2485.927475670354
 21
6757.969781426107
 31
0.0
  0
LINE
  5
B20
330
1F
100
AcDbEntity
  8
图层1
100
AcDbLine
 10
2463.684876307556
 20
6839.418531930835
 30
0.0
 11
2534.119657091391
 21
6665.414442510392
 31
0.0
  0
LINE
  5
B21
330
1F
100
AcDbEntity
  8
图层1
100
AcDbLine
 10
2515.584040424089
 20
6761.672064661301
 30
0.0
 11
2526.705457303791
 21
6539.539077067185
 31
0.0
  0
LINE
  5
B22
330
1F
100
AcDbEntity
  8
图层1
100
AcDbLine
 10
2504.462857941051
 20
6602.476759788789
 30
0.0
 11
2571.190656029388
 21
6491.410265991746
 31
0.0
  0
LINE
  5
B23
330
1F
100
AcDbEntity
  8
图层1
100
AcDbLine
 10
2571.190656029388
 20
6532.134684793219
 30
0.0
 11
2493.341675457954
 21
6439.579258779301
 31
0.0
  0
LINE
  5
B24
330
1F
100
AcDbEntity
  8
图层1
100
AcDbLine
 10
2515.584040424089
 20
6491.410265991746
 30
0.0
 11
2508.170075033153
 21
6332.215048217423
 31
0.0
  0
LINE
  5
B25
330
1F
100
AcDbEntity
  8
图层1
100
AcDbLine
 10
2485.927475670354
 20
6376.641663155901
 30
0.0
 11
2738.010034051958
 21
6332.215048217423
 31
0.0
  0
LINE
  5
B26
330
1F
100
AcDbEntity
  8
图层1
100
AcDbLine
 10
2663.868036176021
 20
6332.215048217423
 30
0.0
 11
2823.273448807596
 21
6387.748251566843
 31
0.0
  0
LINE
  5
B27
330
1F
100
AcDbEntity
  8
图层1
100
AcDbLine
 10
2823.273448807596
 20
6480.303677580761
 30
0.0
 11
2789.909432565096
 21
6361.832791509737
 31
0.0
  0
LINE
  5
B28
330
1F
100
AcDbEntity
  8
图层1
100
AcDbLine
 10
2726.888851568861
 20
6669.116638647382
 30
0.0
 11
2834.394631290635
 21
6398.854927076016
 31
0.0
  0
LINE
  5
B29
330
1F
100
AcDbEntity
  8
图层1
100
AcDbLine
 10
2767.666833202298
 20
6883.845146869285
 30
0.0
 11
2741.71725114406
 21
6572.859016496474
 31
0.0
  0
LINE
  5
B2A
330
1F
100
AcDbEntity
  8
图层1
100
AcDbLine
 10
2730.595834264359
 20
6676.521030921349
 30
0.0
 11
2852.930247957936
 21
6628.392306944099
 31
0.0
  0
LINE
  5
B2B
330
1F
100
AcDbEntity
  8
图层1
100
AcDbLine
 10
3004.921226405307
 20
6698.734381939683
 30
0.0
 11
2723.181634476759
 21
6620.987827571929
 31
0.0
  0
LINE
  5
B2C
330
1F
100
AcDbEntity
  8
图层1
100
AcDbLine
 10
2763.9598505068
 20
6654.307767001204
 30
0.0
 11
2838.101848382737
 21
6495.112549226925
 31
0.0
  0
LINE
  5
B2D
330
1F
100
AcDbEntity
  8
图层1
100
AcDbLine
 10
2804.737832140237
 20
6535.836880930181
 30
0.0
 11
2956.729044984271
 21
6469.197002071601
 31
0.0
  0
LINE
  5
B2E
330
1F
100
AcDbEntity
  8
图层1
100
AcDbLine
 10
3105.013040736145
 20
6528.432488656214
 30
0.0
 11
2901.122429378972
 21
6480.303677580761
 31
0.0
  0
LINE
  5
B2F
330
1F
100
AcDbEntity
  8
图层1
100
AcDbLine
 10
3231.054202728615
 20
6661.712246373387
 30
0.0
 11
3049.406425130904
 21
6498.8147453639
 31
0.0
  0
LINE
  5
B30
330
1F
100
AcDbEntity
  8
图层1
100
AcDbLine
 10
2953.021827892111
 20
6702.436578076643
 30
0.0
 11
3041.992225343305
 21
6650.605570864214
 31
0.0
  0
LINE
  5
B31
330
1F
100
AcDbEntity
  8
图层1
100
AcDbLine
 10
3019.749625980507
 20
6691.329902567483
 30
0.0
 11
3012.335426192907
 21
6480.303677580761
 31
0.0
  0
LINE
  5
B32
330
1F
100
AcDbEntity
  8
图层1
100
AcDbLine
 10
2852.930247957936
 20
6676.521030921349
 30
0.0
 11
2938.19342831697
 21
6591.370084279629
 31
0.0
  0
LINE
  5
B33
330
1F
100
AcDbEntity
  8
图层1
100
AcDbLine
 10
3038.285242647807
 20
6624.690023708904
 30
0.0
 11
2897.415446683533
 21
6609.881239160959
 31
0.0
  0
LINE
  5
B34
330
1F
100
AcDbEntity
  8
图层1
100
AcDbLine
 10
2993.800043922269
 20
6532.134684793219
 30
0.0
 11
2956.729044984271
 21
6332.215048217423
 31
0.0
  0
LINE
  5
B35
330
1F
100
AcDbEntity
  8
图层1
100
AcDbLine
 10
3938.953353900405
 20
6392.671564483612
 30
0.0
 11
4279.710501186725
 21
6364.096038265959
 31
0.0
  0
LINE
  5
B36
330
1F
100
AcDbEntity
  8
图层1
100
AcDbLine
 10
2797.724684985764
 20
6823.350394492829
 30
0.0
 11
2827.145915523522
 21
7253.068879736462
 31
0.0
  0
LINE
  5
B37
330
1F
100
AcDbEntity
  8
图层1
100
AcDbLine
 10
2834.501281757084
 20
7142.884690716795
 30
0.0
 11
2757.270639494296
 21
7646.059360039003
 31
0.0
  0
LINE
  5
B38
330
1F
100
AcDbEntity
  8
图层1
100
AcDbLine
 10
3570.031810803748
 20
6779.276701465327
 30
0.0
 11
3661.973185533776
 21
7040.046015587146
 31
0.0
  0
LINE
  5
B39
330
1F
100
AcDbEntity
  8
图层1
100
AcDbLine
 10
3636.387387044496
 20
6919.406558504508
 30
0.0
 11
3636.387387044496
 21
7727.424322074255
 31
0.0
  0
LINE
  5
B3A
330
1F
100
AcDbEntity
  8
图层1
100
AcDbLine
 10
3673.772477465974
 20
7739.29136487925
 30
0.0
 11
4346.783096717032
 21
7713.581717871382
 31
0.0
  0
LINE
  5
B3B
330
1F
100
AcDbEntity
  8
图层1
100
AcDbLine
 10
4243.808672636632
 20
7720.927318859589
 30
0.0
 11
4523.310245546804
 21
7658.489579812467
 31
0.0
  0
LINE
  5
B3C
330
1F
100
AcDbEntity
  8
图层1
100
AcDbLine
 10
5188.965498564242
 20
7647.471221879216
 30
0.0
 11
4387.237142208499
 21
7673.180868887086
 31
0.0
  0
LINE
  5
B3D
330
1F
100
AcDbEntity
  8
图层1
100
AcDbLine
 10
4593.185755972635
 20
7820.09314994606
 30
0.0
 11
4769.713139199012
 21
7790.710658894973
 31
0.0
  0
LINE
  5
B3E
330
1F
100
AcDbEntity
  8
图层1
100
AcDbLine
 10
4751.324723615079
 20
7820.09314994606
 30
0.0
 11
4703.51531189005
 21
7629.107175859598
 31
0.0
  0
LINE
  5
B3F
330
1F
100
AcDbEntity
  8
图层1
100
AcDbLine
 10
3614.930016390457
 20
7831.111594977473
 30
0.0
 11
3743.647987891805
 21
7709.90896092638
 31
0.0
  0
LINE
  5
B40
330
1F
100
AcDbEntity
  8
图层1
100
AcDbLine
 10
3747.325671008615
 20
7765.00101188709
 30
0.0
 11
3625.963065740887
 21
7665.835267898893
 31
0.0
  0
LINE
  5
B41
330
1F
100
AcDbEntity
  8
图层1
100
AcDbLine
 10
3570.798287782237
 20
7728.273006946013
 30
0.0
 11
3677.450160582785
 21
7669.50802484391
 31
0.0
  0
LINE
  5
B42
330
1F
100
AcDbEntity
  8
图层1
100
AcDbLine
 10
3670.094794349164
 20
7823.765993989252
 30
0.0
 11
3548.732189081436
 21
7768.673855930323
 31
0.0
  0
LINE
  5
B43
330
1F
100
AcDbEntity
  8
图层1
100
AcDbLine
 10
3581.831102735947
 20
7809.074704914606
 30
0.0
 11
3578.153419619195
 21
7676.853625832086
 31
0.0
  0
LINE
  5
B44
330
1F
100
AcDbEntity
  8
图层1
100
AcDbLine
 10
2150.834054142646
 20
8852.412036630475
 30
0.0
 11
2186.12902981887
 21
6749.243586851841
 31
0.0
  0
LINE
  5
B45
330
1F
100
AcDbEntity
  8
图层1
100
AcDbLine
 10
1409.636283387955
 20
8135.68982359539
 30
0.0
 11
2227.306892102295
 21
8118.065502597868
 31
0.0
  0
LINE
  5
B46
330
1F
100
AcDbEntity
  8
图层1
100
AcDbLine
 10
1939.063262498415
 20
8311.933033570317
 30
0.0
 11
2209.65916986752
 21
8306.058259904492
 31
0.0
  0
LINE
  5
B47
330
1F
100
AcDbEntity
  8
图层1
100
AcDbLine
 10
1939.063262498415
 20
8817.163394635462
 30
0.0
 11
1997.888378223347
 21
8264.934844243709
 31
0.0
  0
LINE
  5
B48
330
1F
100
AcDbEntity
  8
图层1
100
AcDbLine
 10
1444.931259064238
 20
8176.813239256173
 30
0.0
 11
1515.52167921007
 21
7718.58106751771
 31
0.0
  0
LINE
  5
B49
330
1F
100
AcDbEntity
  8
图层1
100
AcDbLine
 10
609.6131625117862
 20
7753.829622414492
 30
0.0
 11
1727.292470854243
 21
7841.951227401985
 31
0.0
  0
LINE
  5
B4A
330
1F
100
AcDbEntity
  8
图层1
100
AcDbLine
 10
1375.414609878151
 20
7361.663874978393
 30
0.0
 11
1519.882394105197
 21
7810.985203956258
 31
0.0
  0
LINE
  5
B4B
330
1F
100
AcDbEntity
  8
图层1
100
AcDbLine
 10
1181.414833095857
 20
7831.596296466702
 30
0.0
 11
1197.925497280959
 21
7633.729999982465
 31
0.0
  0
LINE
  5
B4C
330
1F
100
AcDbEntity
  8
图层1
100
AcDbLine
 10
1697.371506702447
 20
7868.69621072662
 30
0.0
 11
1713.881936490886
 21
7167.919849255156
 31
0.0
  0
LINE
  5
B4D
330
1F
100
AcDbEntity
  8
图层1
100
AcDbLine
 10
1672.605627623097
 20
7543.041349713229
 30
0.0
 11
2217.455670557801
 21
7526.552440865597
 31
0.0
  0
LINE
  5
B4E
330
1F
100
AcDbEntity
  8
图层1
100
AcDbLine
 10
1800.5627476651
 20
7848.08520531438
 30
0.0
 11
1792.30753277091
 21
7493.574710268532
 31
0.0
  0
LINE
  5
B4F
330
1F
100
AcDbEntity
  8
图层1
100
AcDbLine
 10
1895.498773733504
 20
7287.464046458616
 30
0.0
 11
1775.79686858575
 21
7097.842204398175
 31
0.0
  0
LINE
  5
B50
330
1F
100
AcDbEntity
  8
图层1
100
AcDbLine
 10
1639.584299252952
 20
7254.486315861552
 30
0.0
 11
1845.96701557492
 21
7114.331026147619
 31
0.0
  0
LINE
  5
B51
330
1F
100
AcDbEntity
  8
图层1
100
AcDbLine
 10
1800.5627476651
 20
7196.775309091219
 30
0.0
 11
1784.052083479998
 21
6854.631539230225
 31
0.0
  0
LINE
  5
B52
330
1F
100
AcDbEntity
  8
图层1
100
AcDbLine
 10
1895.498773733504
 20
7563.652355125483
 30
0.0
 11
1874.860384902976
 21
7213.264217938839
 31
0.0
  0
LINE
  5
B53
330
1F
100
AcDbEntity
  8
图层1
100
AcDbLine
 10
1557.031212724164
 20
7427.619336172551
 30
0.0
 11
1697.371506702447
 21
7192.65312542844
 31
0.0
  0
LINE
  5
B54
330
1F
100
AcDbEntity
  8
图层1
100
AcDbLine
 10
1354.776221047622
 20
7477.085888519088
 30
0.0
 11
1627.201359713277
 21
7357.541691315612
 31
0.0
  0
LINE
  5
B55
330
1F
100
AcDbEntity
  8
图层1
100
AcDbLine
 10
1016.308894434887
 20
7522.430257202771
 30
0.0
 11
1482.73357548623
 21
7439.985974259214
 31
0.0
  0
LINE
  5
B56
330
1F
100
AcDbEntity
  8
图层1
100
AcDbLine
 10
1396.052764312016
 20
7510.063619116151
 30
0.0
 11
1387.687851795171
 21
6667.15745171128
 31
0.0
  0
LINE
  5
B57
330
1F
100
AcDbEntity
  8
图层1
100
AcDbLine
 10
1210.198973594584
 20
5817.981346102072
 30
0.0
 11
1371.177422006732
 21
6543.491070844995
 31
0.0
  0
LINE
  5
B58
330
1F
100
AcDbEntity
  8
图层1
100
AcDbLine
 10
1338.156093636587
 20
6357.991412447362
 30
0.0
 11
1400.070791334846
 21
6869.145931858371
 31
0.0
  0
LINE
  5
B59
330
1F
100
AcDbEntity
  8
图层1
100
AcDbLine
 10
702.4977492789052
 20
6551.735438170614
 30
0.0
 11
2167.814214776563
 21
6399.213510370032
 31
0.0
  0
LINE
  5
B5A
330
1F
100
AcDbEntity
  8
图层1
100
AcDbLine
 10
2031.601645443764
 20
6428.0690573043
 30
0.0
 11
2498.026326495049
 21
6259.058307754331
 31
0.0
  0
LINE
  5
B5B
330
1F
100
AcDbEntity
  8
图层1
100
AcDbLine
 10
2130.665396157596
 20
6910.368116879273
 30
0.0
 11
2097.644067787451
 21
6353.869228784553
 31
0.0
  0
LINE
  5
B5C
330
1F
100
AcDbEntity
  8
图层1
100
AcDbLine
 10
1808.708499333299
 20
6955.712485562957
 30
0.0
 11
1556.921749498173
 21
6114.780747279369
 31
0.0
  0
LINE
  5
B5D
330
1F
100
AcDbEntity
  8
图层1
100
AcDbLine
 10
1528.028145773454
 20
6778.457281589133
 30
0.0
 11
1528.028145773454
 21
6415.702419217694
 31
0.0
  0
LINE
  5
B5E
330
1F
100
AcDbEntity
  8
图层1
100
AcDbLine
 10
1094.624558695652
 20
7149.456511286209
 30
0.0
 11
1032.709860997392
 21
6423.946873641519
 31
0.0
  0
LINE
  5
B5F
330
1F
100
AcDbEntity
  8
图层1
100
AcDbLine
 10
900.6250163100206
 20
6559.979892594438
 30
0.0
 11
892.369801415772
 21
6316.76922742646
 31
0.0
  0
LINE
  5
B60
330
1F
100
AcDbEntity
  8
图层1
100
AcDbLine
 10
1053.348249827862
 20
6555.857708931615
 30
0.0
 11
888.2420767703456
 21
5871.570169209609
 31
0.0
  0
LINE
  5
B61
330
1F
100
AcDbEntity
  8
图层1
100
AcDbLine
 10
619.9446627500596
 20
6283.791583927571
 30
0.0
 11
1350.539033176204
 21
6205.469484646794
 31
0.0
  0
LINE
  5
B62
330
1F
100
AcDbEntity
  8
图层1
100
AcDbLine
 10
793.306050701883
 20
6296.158222014206
 30
0.0
 11
772.6678962680174
 21
6073.55864935667
 31
0.0
  0
LINE
  5
B63
330
1F
100
AcDbEntity
  8
图层1
100
AcDbLine
 10
743.7742925432988
 20
6114.780747279369
 30
0.0
 11
970.795163299133
 21
6106.536379953763
 31
0.0
  0
LINE
  5
B64
330
1F
100
AcDbEntity
  8
图层1
100
AcDbLine
 10
8795.054274449592
 20
6124.90600025826
 30
0.0
 11
9239.726948283673
 21
6102.1323465121
 31
0.0
  0
LINE
  5
B65
330
1F
100
AcDbEntity
  8
图层1
100
AcDbLine
 10
9025.941986402207
 20
6133.446153074915
 30
0.0
 11
9062.997983955897
 21
5837.388305981983
 31
0.0
  0
LINE
  5
B66
330
1F
100
AcDbEntity
  8
图层1
100
AcDbLine
 10
9271.081951014698
 20
5951.256748909194
 30
0.0
 11
9031.642981224869
 21
5897.169288600246
 31
0.0
  0
LINE
  5
B67
330
1F
100
AcDbEntity
  8
图层1
100
AcDbLine
 10
9134.259716048607
 20
6082.205323273291
 30
0.0
 11
9422.15667303739
 21
5532.790480268818
 31
0.0
  0
LINE
  5
B68
330
1F
100
AcDbEntity
  8
图层1
100
AcDbLine
 10
8968.932741366037
 20
5831.694957869074
 30
0.0
 11
9179.867205836172
 21
5615.345029535024
 31
0.0
  0
LINE
  5
B69
330
1F
100
AcDbEntity
  8
图层1
100
AcDbLine
 10
9134.259716048607
 20
5632.4252480701
 30
0.0
 11
9402.52150178113
 21
5651.760177737688
 31
0.0
  0
LINE
  5
B6A
330
1F
100
AcDbEntity
  8
图层1
100
AcDbLine
 10
9881.399441360963
 20
5740.008162214992
 30
0.0
 11
9006.306815145945
 21
4834.754576597542
 31
0.0
  0
LINE
  5
B6B
330
1F
100
AcDbEntity
  8
图层1
100
AcDbLine
 10
9285.652279900855
 20
5515.118168162492
 30
0.0
 11
9536.493239336008
 21
5321.541893574603
 31
0.0
  0
LINE
  5
B6C
330
1F
100
AcDbEntity
  8
图层1
100
AcDbLine
 10
9428.17550968961
 20
5591.979282217614
 30
0.0
 11
9237.194527098621
 21
5412.636595657449
 31
0.0
  0
LINE
  5
B6D
330
1F
100
AcDbEntity
  8
图层1
100
AcDbLine
 10
9145.979547523429
 20
5492.344514416331
 30
0.0
 11
9274.25052465225
 21
5412.636595657449
 31
0.0
  0
LINE
  5
B6E
330
1F
100
AcDbEntity
  8
图层1
100
AcDbLine
 10
9208.689787382203
 20
5498.037862529226
 30
0.0
 11
9100.372057735864
 21
5378.476071489121
 31
0.0
  0
LINE
  5
B6F
330
1F
100
AcDbEntity
  8
图层1
100
AcDbLine
 10
8897.989085499549
 20
5577.745781288093
 30
0.0
 11
9408.22226220713
 21
5147.892642225536
 31
0.0
  0
LINE
  5
B70
330
1F
100
AcDbEntity
  8
图层1
100
AcDbLine
 10
8755.152233020579
 20
6236.3881266711
 30
0.0
 11
9000.605820323341
 21
5731.468096496556
 31
0.0
  0
LINE
  5
B71
330
1F
100
AcDbEntity
  8
图层1
100
AcDbLine
 10
8946.447072698504
 20
5888.037042212356
 30
0.0
 11
8932.194820038569
 21
5253.220845237917
 31
0.0
  0
LINE
  5
B72
330
1F
100
AcDbEntity
  8
图层1
100
AcDbLine
 10
8626.881255891643
 20
6304.709087909582
 30
0.0
 11
8874.871717915523
 21
6085.512529068179
 31
0.0
  0
LINE
  5
B73
330
1F
100
AcDbEntity
  8
图层1
100
AcDbLine
 10
8239.218061490452
 20
6381.570289062908
 30
0.0
 11
8683.890500927812
 21
6276.241998952323
 31
0.0
  0
LINE
  5
B74
330
1F
100
AcDbEntity
  8
图层1
100
AcDbLine
 10
8338.984298902856
 20
6549.526105200877
 30
0.0
 11
7766.040882336558
 21
6418.577530836808
 31
0.0
  0
LINE
  5
B75
330
1F
100
AcDbEntity
  8
图层1
100
AcDbLine
 10
7917.11560435925
 20
6669.087896240997
 30
0.0
 11
7726.134387371597
 21
6250.621627600606
 31
0.0
  0
LINE
  5
B76
330
1F
100
AcDbEntity
  8
图层1
100
AcDbLine
 10
8142.30232148926
 20
6526.75245145473
 30
0.0
 11
8438.750536315319
 21
6304.709087909582
 31
0.0
  0
LINE
  5
B77
330
1F
100
AcDbEntity
  8
图层1
100
AcDbLine
 10
8361.78804379667
 20
6486.898492075289
 30
0.0
 11
8364.638541208
 21
6276.241998952323
 31
0.0
  0
LINE
  5
B78
330
1F
100
AcDbEntity
  8
图层1
100
AcDbLine
 10
8290.52631170396
 20
6560.912975623073
 30
0.0
 11
8384.591788690482
 21
6427.117596555245
 31
0.0
  0
LINE
  5
B79
330
1F
100
AcDbEntity
  8
图层1
100
AcDbLine
 10
8880.572712738127
 20
6045.658569688739
 30
0.0
 11
8561.320518621595
 21
6281.935434163408
 31
0.0
  0
LINE
  5
B7A
330
1F
100
AcDbEntity
  8
图层1
100
AcDbLine
 10
8381.741291279208
 20
6330.329459261285
 30
0.0
 11
8672.488745679265
 21
6222.154538643376
 31
0.0
  0
LINE
  5
B7B
330
1F
100
AcDbEntity
  8
图层1
100
AcDbLine
 10
8567.021513444199
 20
6290.475586980062
 30
0.0
 11
8569.872010855473
 21
6182.300579263935
 31
0.0
  0
LINE
  5
B7C
330
1F
100
AcDbEntity
  8
图层1
100
AcDbLine
 10
8535.666276316566
 20
6227.847973854445
 30
0.0
 11
8826.413730716625
 21
6025.731633548135
 31
0.0
  0
LINE
  5
B7D
330
1F
100
AcDbEntity
  8
图层1
100
AcDbLine
 10
8792.208230574267
 20
6068.4322234349
 30
0.0
 11
8954.684707845446
 21
5735.367221666287
 31
0.0
  0
LINE
  5
B7E
330
1F
100
AcDbEntity
  8
图层1
100
AcDbLine
 10
6648.540887415702
 20
8253.147583390926
 30
0.0
 11
6619.589622120082
 21
7917.310594273314
 31
0.0
  0
LINE
  5
B7F
330
1F
100
AcDbEntity
  8
图层1
100
AcDbLine
 10
6802.205223401021
 20
8215.338080086489
 30
0.0
 11
6641.859645888501
 21
7906.190157248381
 31
0.0
  0
LINE
  5
B80
330
1F
100
AcDbEntity
  8
图层1
100
AcDbLine
 10
6701.989178856603
 20
8090.789307344621
 30
0.0
 11
6820.021242415767
 21
7981.809076759096
 31
0.0
  0
LINE
  5
B81
330
1F
100
AcDbEntity
  8
图层1
100
AcDbLine
 10
6804.432225777826
 20
8019.61858006352
 30
0.0
 11
6719.805432267953
 21
7861.708496246811
 31
0.0
  0
LINE
  5
B82
330
1F
100
AcDbEntity
  8
图层1
100
AcDbLine
 10
6637.405641134829
 20
7943.999660552847
 30
0.0
 11
6753.210702317244
 21
7855.03625145149
 31
0.0
  0
LINE
  5
B83
330
1F
100
AcDbEntity
  8
图层1
100
AcDbLine
 10
8946.973996321556
 20
6909.828369326866
 30
0.0
 11
8893.825498169814
 21
6795.8076787441
 31
0.0
  0
LINE
  5
B84
330
1F
100
AcDbEntity
  8
图层1
100
AcDbLine
 10
8799.339044836759
 20
6860.68155447672
 30
0.0
 11
9080.829941941486
 21
6748.626670293282
 31
0.0
  0
LINE
  5
B85
330
1F
100
AcDbEntity
  8
图层1
100
AcDbLine
 10
9707.939372428171
 20
7290.823859566987
 30
0.0
 11
10434.32257300877
 21
7457.588433608214
 31
0.0
  0
LINE
  5
B86
330
1F
100
AcDbEntity
  8
图层1
100
AcDbLine
 10
10353.61325036758
 20
7502.059033138245
 30
0.0
 11
10902.20543549216
 21
6358.325782441481
 31
0.0
  0
LINE
  5
B87
330
1F
100
AcDbEntity
  8
图层1
100
AcDbLine
 10
10442.8696117067
 20
7337.629997360176
 30
0.0
 11
10548.62655817577
 21
6956.850771953444
 31
0.0
  0
LINE
  5
B88
330
1F
100
AcDbEntity
  8
图层1
100
AcDbLine
 10
10531.9279078939
 20
7098.600655533568
 30
0.0
 11
9980.878777298961
 21
6834.556710344088
 31
0.0
  0
LINE
  5
B89
330
1F
100
AcDbEntity
  8
图层1
100
AcDbLine
 10
10178.4772455339
 20
7173.644814015036
 30
0.0
 11
9850.074207001833
 21
7017.997802758157
 31
0.0
  0
LINE
  5
B8A
330
1F
100
AcDbEntity
  8
图层1
100
AcDbLine
 10
10145.08017936663
 20
7190.321245289718
 30
0.0
 11
10278.66797524237
 21
6926.277213002037
 31
0.0
  0
LINE
  5
B8B
330
1F
100
AcDbEntity
  8
图层1
100
AcDbLine
 10
10509.6632752479
 20
7268.144707369071
 30
0.0
 11
10273.10175848176
 21
7159.747686338253
 31
0.0
  0
LINE
  5
B8C
330
1F
100
AcDbEntity
  8
图层1
100
AcDbLine
 10
10125.5987722993
 20
7165.306554828615
 30
0.0
 11
10364.94328024756
 21
7176.424204711122
 31
0.0
  0
LINE
  5
B8D
330
1F
100
AcDbEntity
  8
图层1
100
AcDbLine
 10
10008.64001090661
 20
7624.3588432289
 30
0.0
 11
10117.18018295435
 21
7357.535420245132
 31
0.0
  0
LINE
  5
B8E
330
1F
100
AcDbEntity
  8
图层1
100
AcDbLine
 10
10340.25428326271
 20
7666.458629724328
 30
0.0
 11
10368.0848982727
 21
7452.444065457012
 31
0.0
  0
LINE
  5
B8F
330
1F
100
AcDbEntity
  8
图层1
100
AcDbLine
 10
9805.853407674355
 20
7975.288469931901
 30
0.0
 11
9903.26091180416
 21
7911.362048431143
 31
0.0
  0
LINE
  5
B90
330
1F
100
AcDbEntity
  8
图层1
100
AcDbLine
 10
10028.49949973728
 20
8078.126709570545
 30
0.0
 11
9839.250239444957
 21
7911.362048431143
 31
0.0
  0
LINE
  5
B91
330
1F
100
AcDbEntity
  8
图层1
100
AcDbLine
 10
9867.081088851616
 20
7964.170907147611
 30
0.0
 11
9858.731880908893
 21
7861.332667508968
 31
0.0
  0
LINE
  5
B92
330
1F
100
AcDbEntity
  8
图层1
100
AcDbLine
 10
9883.779504736887
 20
7897.465007852564
 30
0.0
 11
9744.625726497153
 21
7836.317977047865
 31
0.0
  0
LINE
  5
B93
330
1F
100
AcDbEntity
  8
图层1
100
AcDbLine
 10
9794.720974153085
 20
7869.670926695374
 30
0.0
 11
9661.133412673954
 21
7722.362174624916
 31
0.0
  0
LINE
  5
B94
330
1F
100
AcDbEntity
  8
图层1
100
AcDbLine
 10
9672.265611798621
 20
7769.612164851022
 30
0.0
 11
9719.577868272551
 21
7505.568132563325
 31
0.0
  0
LINE
  5
B95
330
1F
100
AcDbEntity
  8
图层1
100
AcDbLine
 10
9688.964027683951
 20
7547.259254299094
 30
0.0
 11
9828.118040320291
 21
7449.979883150813
 31
0.0
  0
LINE
  5
B96
330
1F
100
AcDbEntity
  8
图层1
100
AcDbLine
 10
9783.58877502842
 20
7452.759273846871
 30
0.0
 11
9931.091761210819
 21
7511.126913955469
 31
0.0
  0
LINE
  5
B97
330
1F
100
AcDbEntity
  8
图层1
100
AcDbLine
 10
9875.430296794222
 20
7500.009264072961
 30
0.0
 11
10031.28249091929
 21
7480.553442102236
 31
0.0
  0
LINE
  5
B98
330
1F
100
AcDbEntity
  8
图层1
100
AcDbLine
 10
10240.01339267555
 20
7569.494554064096
 30
0.0
 11
9950.573402674756
 21
7480.553442102236
 31
0.0
  0
LINE
  5
B99
330
1F
100
AcDbEntity
  8
图层1
100
AcDbLine
 10
10251.14559180022
 20
7625.08280347665
 30
0.0
 11
10195.48412738362
 21
7541.700472906921
 31
0.0
  0
LINE
  5
B9A
330
1F
100
AcDbEntity
  8
图层1
100
AcDbLine
 10
10217.74876002956
 20
7602.847503711605
 30
0.0
 11
10329.07192325935
 21
7644.53862544736
 31
0.0
  0
LINE
  5
B9B
330
1F
100
AcDbEntity
  8
图层1
100
AcDbLine
 10
10284.54265796742
 20
7752.935646478178
 30
0.0
 11
10312.37327297742
 21
7600.068113015561
 31
0.0
  0
LINE
  5
B9C
330
1F
100
AcDbEntity
  8
图层1
100
AcDbLine
 10
10323.50570649875
 20
7814.082677282863
 30
0.0
 11
10278.97644120676
 21
7694.568006369552
 31
0.0
  0
LINE
  5
B9D
330
1F
100
AcDbEntity
  8
图层1
100
AcDbLine
 10
10304.02406503476
 20
7789.067986821774
 30
0.0
 11
10387.51637885795
 21
7797.406246008197
 31
0.0
  0
LINE
  5
B9E
330
1F
100
AcDbEntity
  8
图层1
100
AcDbLine
 10
10342.98711356602
 20
7919.70030761755
 30
0.0
 11
10362.46875502996
 21
7758.494514968527
 31
0.0
  0
LINE
  5
B9F
330
1F
100
AcDbEntity
  8
图层1
100
AcDbLine
 10
10384.73338767589
 20
7941.935607382595
 30
0.0
 11
10337.42113120202
 21
7880.788576577882
 31
0.0
  0
LINE
  5
BA0
330
1F
100
AcDbEntity
  8
图层1
100
AcDbLine
 10
10184.35192825895
 20
8169.847212228507
 30
0.0
 11
10398.64881237922
 21
7897.465007852564
 31
0.0
  0
LINE
  5
BA7
330
1F
100
AcDbEntity
  8
图层1
100
AcDbLine
 10
10337.29924495466
 20
8006.317378278842
 30
0.0
 11
10170.31461730832
 21
7889.582185159806
 31
0.0
  0
LINE
  5
BA8
330
1F
100
AcDbEntity
  8
图层1
100
AcDbLine
 10
10181.44705082959
 20
7936.832088287705
 30
0.0
 11
10239.89150642819
 21
7770.067514246523
 31
0.0
  0
LINE
  5
BA9
330
1F
100
AcDbEntity
  8
图层1
100
AcDbLine
 10
10231.54229848552
 20
7836.773326443339
 30
0.0
 11
10189.79625877226
 21
7667.22927460785
 31
0.0
  0
LINE
  5
BAA
330
1F
100
AcDbEntity
  8
图层1
100
AcDbLine
 10
10220.41009936086
 20
7725.596914716478
 30
0.0
 11
10092.38852024585
 21
7597.744071714949
 31
0.0
  0
LINE
  5
BAB
330
1F
100
AcDbEntity
  8
图层1
100
AcDbLine
 10
10156.39919260499
 20
7636.655802754617
 30
0.0
 11
9969.933157891329
 21
7553.273472184888
 31
0.0
  0
LINE
  5
BAC
330
1F
100
AcDbEntity
  8
图层1
100
AcDbLine
 10
9833.562370833593
 20
7656.111624725342
 30
0.0
 11
10025.59462230792
 21
7561.611731371352
 31
0.0
  0
LINE
  5
BAD
330
1F
100
AcDbEntity
  8
图层1
100
AcDbLine
 10
9866.959202604196
 20
7772.846904942567
 30
0.0
 11
9872.52541936486
 21
7608.861634499253
 31
0.0
  0
LINE
  5
BAE
330
1F
100
AcDbEntity
  8
图层1
100
AcDbLine
 10
9958.800724370057
 20
7909.03800713053
 30
0.0
 11
9847.477795536924
 21
7717.258655530056
 31
0.0
  0
LINE
  5
BAF
330
1F
100
AcDbEntity
  8
图层1
100
AcDbLine
 10
9841.91157877626
 20
7897.920357248051
 30
0.0
 11
9956.017733187998
 21
7856.229235512268
 31
0.0
  0
LINE
  5
BB0
330
1F
100
AcDbEntity
  8
图层1
100
AcDbLine
 10
10100.73772818845
 20
7947.949738170215
 30
0.0
 11
9922.620901417454
 21
7881.243925973385
 31
0.0
  0
LINE
  5
BB1
330
1F
100
AcDbEntity
  8
图层1
100
AcDbLine
 10
10045.07626377192
 20
7947.949738170215
 30
0.0
 11
10228.75930730352
 21
7892.361575855892
 31
0.0
  0
LINE
  5
BB2
330
1F
100
AcDbEntity
  8
图层1
100
AcDbLine
 10
10231.54229848552
 20
8150.846739653211
 30
0.0
 11
9958.800724370057
 21
8034.111459436017
 31
0.0
  0
LINE
  5
BB3
330
1F
100
AcDbEntity
  8
图层1
100
AcDbLine
 10
10242.6747320068
 20
8278.69966975296
 30
0.0
 11
9853.043777900925
 21
8000.758596886667
 31
0.0
  0
LINE
  5
BB6
330
1F
100
AcDbEntity
  8
图层1
100
AcDbLine
 10
10668.91117334447
 20
8542.942111742819
 30
0.0
 11
10680.0433724692
 21
8320.589288289069
 31
0.0
  0
LINE
  5
BB7
330
1F
100
AcDbEntity
  8
图层1
100
AcDbLine
 10
10874.85884952213
 20
8031.530565540283
 30
0.0
 11
11178.2142642262
 21
8078.780555766371
 31
0.0
  0
LINE
  5
BB8
330
1F
100
AcDbEntity
  8
图层1
100
AcDbLine
 10
10916.60512363201
 20
8309.471638406559
 30
0.0
 11
10955.56817216327
 21
7984.280662412396
 31
0.0
  0
LINE
  5
BB9
330
1F
100
AcDbEntity
  8
图层1
100
AcDbLine
 10
10605.49539963098
 20
6929.219825727011
 30
0.0
 11
10800.31087668391
 21
7034.837456061713
 31
0.0
  0
LINE
  5
BBA
330
1F
100
AcDbEntity
  8
图层1
100
AcDbLine
 10
10769.69703609525
 20
7040.396237453872
 30
0.0
 11
10822.57550932985
 21
6965.352166070608
 31
0.0
  0
LINE
  5
BBB
330
1F
100
AcDbEntity
  8
图层1
100
AcDbLine
 10
10803.09386786592
 20
7012.602156296697
 30
0.0
 11
10850.40612433979
 21
6815.264023304063
 31
0.0
  0
LINE
  5
BBC
330
1F
100
AcDbEntity
  8
图层1
100
AcDbLine
 10
10855.97234110051
 20
6868.072794922297
 30
0.0
 11
10694.55393021472
 21
6742.99934261684
 31
0.0
  0
LINE
  5
BBD
330
1F
100
AcDbEntity
  8
图层1
100
AcDbLine
 10
10396.23241752572
 20
6213.428169872718
 30
0.0
 11
11142.09725957032
 21
6502.486892621504
 31
0.0
  0
LINE
  5
BBE
330
1F
100
AcDbEntity
  8
图层1
100
AcDbLine
 10
10412.86590554466
 20
6967.057113357606
 30
0.0
 11
10774.66577584733
 21
6338.910374036049
 31
0.0
  0
LINE
  5
BBF
330
1F
100
AcDbEntity
  8
图层1
100
AcDbLine
 10
10577.06730761239
 20
6719.689599442752
 30
0.0
 11
10407.299688784
 21
6611.292578411992
 31
0.0
  0
LINE
  5
BC0
330
1F
100
AcDbEntity
  8
图层1
100
AcDbLine
 10
10421.21511348733
 20
6655.763177942024
 30
0.0
 11
10401.73347202339
 21
6463.983826341504
 31
0.0
  0
LINE
  5
BC1
330
1F
100
AcDbEntity
  8
图层1
100
AcDbLine
 10
10390.60127289873
 20
6530.689638538349
 30
0.0
 11
10482.44279466453
 21
6397.277927046472
 31
0.0
  0
LINE
  5
BC2
330
1F
100
AcDbEntity
  8
图层1
100
AcDbLine
 10
10457.39493643999
 20
6419.513226811488
 30
0.0
 11
10613.24736496166
 21
6366.704455193224
 31
0.0
  0
LINE
  5
BC3
330
1F
100
AcDbEntity
  8
图层1
100
AcDbLine
 10
10501.92420173186
 20
6430.630876693981
 30
0.0
 11
10568.71809966973
 21
6255.528043466348
 31
0.0
  0
LINE
  5
BC4
330
1F
100
AcDbEntity
  8
图层1
100
AcDbLine
 10
10866.50729761319
 20
6930.92477301401
 30
0.0
 11
10908.25357172306
 21
6714.130730952418
 31
0.0
  0
LINE
  5
BC5
330
1F
100
AcDbEntity
  8
图层1
100
AcDbLine
 10
11066.88899142673
 20
6444.527917272562
 30
0.0
 11
10883.20594789507
 21
6794.733670826061
 31
0.0
  0
LINE
  5
BC6
330
1F
100
AcDbEntity
  8
图层1
100
AcDbLine
 10
11078.0211905514
 20
7014.307103583695
 30
0.0
 11
10858.15808967047
 21
6883.674782787877
 31
0.0
  0
LINE
  5
BC7
330
1F
100
AcDbEntity
  8
图层1
100
AcDbLine
 10
11083.58740731212
 20
6894.792432670413
 30
0.0
 11
11239.43983583379
 21
6522.351466450132
 31
0.0
  0
LINE
  5
BC8
330
1F
100
AcDbEntity
  8
图层1
100
AcDbLine
 10
11200.47655290586
 20
6650.204309451645
 30
0.0
 11
10983.3966776036
 21
6522.351466450132
 31
0.0
  0
LINE
  5
BC9
330
1F
100
AcDbEntity
  8
图层1
100
AcDbLine
 10
11005.66131024953
 20
6864.218960817151
 30
0.0
 11
11169.86271231726
 21
6586.277887950889
 31
0.0
  0
LINE
  5
BCA
330
1F
100
AcDbEntity
  8
图层1
100
AcDbLine
 10
11103.06904877606
 20
6894.792432670413
 30
0.0
 11
10863.72430643119
 21
6766.939589668869
 31
0.0
  0
LINE
  5
BCB
330
1F
100
AcDbEntity
  8
图层1
100
AcDbLine
 10
11075.23819936946
 20
6800.292539316394
 30
0.0
 11
10911.03656290506
 21
6697.454299677736
 31
0.0
  0
LINE
  5
BCC
330
1F
100
AcDbEntity
  8
图层1
100
AcDbLine
 10
10975.04746966093
 20
6853.101310934658
 30
0.0
 11
11027.92594289553
 21
6736.366030717419
 31
0.0
  0
LINE
  5
BCD
330
1F
100
AcDbEntity
  8
图层1
100
AcDbLine
 10
10988.96289436426
 20
6914.248341739328
 30
0.0
 11
10988.96289436426
 21
6789.174889433886
 31
0.0
  0
LINE
  5
BCE
330
1F
100
AcDbEntity
  8
图层1
100
AcDbLine
 10
10986.1796687856
 20
6983.733631730477
 30
0.0
 11
11083.58740731212
 21
6844.763051748222
 31
0.0
  0
LINE
  5
BCF
330
1F
100
AcDbEntity
  8
图层1
100
AcDbLine
 10
11052.97356672346
 20
6928.145382317923
 30
0.0
 11
10969.48125290032
 21
6872.557220003601
 31
0.0
  0
LINE
  5
BD3
330
1F
100
AcDbEntity
  8
图层1
100
AcDbLine
 10
7547.257646727726
 20
2603.490889523649
 30
0.0
 11
7818.66245686519
 21
2761.801625065539
 31
0.0
  0
LINE
  5
BD4
330
1F
100
AcDbEntity
  8
图层1
100
AcDbLine
 10
7544.855784465268
 20
2860.146120115377
 30
0.0
 11
7571.275800558971
 21
2579.504393326822
 31
0.0
  0
LINE
  5
BD5
330
1F
100
AcDbEntity
  8
图层1
100
AcDbLine
 10
7532.846707549705
 20
2716.227317130853
 30
0.0
 11
7710.580764624698
 21
2821.767778459374
 31
0.0
  0
LINE
  5
BD6
330
1F
100
AcDbEntity
  8
图层1
100
AcDbLine
 10
7463.24848833651
 20
2951.007486117412
 30
0.0
 11
7504.079209211633
 21
2238.609176178933
 31
0.0
  0
LINE
  5
BD7
330
1F
100
AcDbEntity
  8
图层1
100
AcDbLine
 10
7506.48107147409
 20
2608.000921476069
 30
0.0
 11
6437.314833538433
 21
1563.02204996361
 31
0.0
  0
LINE
  5
BD8
330
1F
100
AcDbEntity
  8
图层1
100
AcDbLine
 10
6684.70148984471
 20
1855.657111948768
 30
0.0
 11
6879.248348360242
 21
1649.373384013253
 31
0.0
  0
LINE
  5
BD9
330
1F
100
AcDbEntity
  8
图层1
100
AcDbLine
 10
6555.003740432091
 20
2268.22448072161
 30
0.0
 11
6874.444623835327
 21
1944.407043359145
 31
0.0
  0
LINE
  5
BDA
330
1F
100
AcDbEntity
  8
图层1
100
AcDbLine
 10
6701.613441059483
 20
2513.511305709796
 30
0.0
 11
7193.98489140952
 21
1971.416979411592
 31
0.0
  0
LINE
  5
BDB
330
1F
100
AcDbEntity
  8
图层1
100
AcDbLine
 10
6751.996996569681
 20
2511.394819422455
 30
0.0
 11
6365.305376197678
 21
1911.732937091195
 31
0.0
  0
LINE
  5
BDC
330
1F
100
AcDbEntity
  8
图层1
100
AcDbLine
 10
6060.275197575801
 20
2254.739501732537
 30
0.0
 11
6617.495522632149
 21
2254.739501732537
 31
0.0
  0
LINE
  5
BDD
330
1F
100
AcDbEntity
  8
图层1
100
AcDbLine
 10
5981.015383691527
 20
2305.111178585144
 30
0.0
 11
6117.918719891459
 21
2237.948971814422
 31
0.0
  0
LINE
  5
BDE
330
1F
100
AcDbEntity
  8
图层1
100
AcDbLine
 10
6034.56584489951
 20
2518.419115072761
 30
0.0
 11
6146.740598247562
 21
1978.895056763727
 31
0.0
  0
LINE
  5
BDF
330
1F
100
AcDbEntity
  8
图层1
100
AcDbLine
 10
6117.918719891459
 20
2031.665330977096
 30
0.0
 11
6485.39591095713
 21
2024.469364698399
 31
0.0
  0
LINE
  5
BE0
330
1F
100
AcDbEntity
  8
图层1
100
AcDbLine
 10
6410.939821597655
 20
2072.442357092052
 30
0.0
 11
6691.951846388286
 21
1772.611415926415
 31
0.0
  0
LINE
  5
BE1
330
1F
100
AcDbEntity
  8
图层1
100
AcDbLine
 10
5983.417245953869
 20
2396.259794454502
 30
0.0
 11
6021.846338963195
 21
2257.138186191504
 31
0.0
  0
LINE
  5
BE2
330
1F
100
AcDbEntity
  8
图层1
100
AcDbLine
 10
5889.74672728812
 20
2391.462425536568
 30
0.0
 11
6012.239124310029
 21
2379.469177438155
 31
0.0
  0
LINE
  5
BE3
330
1F
100
AcDbEntity
  8
图层1
100
AcDbLine
 10
5627.949131803821
 20
2497.002973963293
 30
0.0
 11
6814.444243410196
 21
2477.813759586196
 31
0.0
  0
LINE
  5
BE4
330
1F
100
AcDbEntity
  8
图层1
100
AcDbLine
 10
7513.371394794727
 20
2583.354220914718
 30
0.0
 11
6682.344631735119
 21
2470.617793307513
 31
0.0
  0
LINE
  5
BE5
330
1F
100
AcDbEntity
  8
图层1
100
AcDbLine
 10
6749.533253597039
 20
2955.965986707413
 30
0.0
 11
6730.318824290648
 21
2457.047283884957
 31
0.0
  0
LINE
  5
BE6
330
1F
100
AcDbEntity
  8
图层1
100
AcDbLine
 10
6879.231237406262
 20
2927.182208690855
 30
0.0
 11
6879.231237406262
 21
2478.635095622803
 31
0.0
  0
LINE
  5
BE7
330
1F
100
AcDbEntity
  8
图层1
100
AcDbLine
 10
6002.555776389026
 20
2686.082418323412
 30
0.0
 11
6759.140702646867
 21
2677.722857279635
 31
0.0
  0
LINE
  5
BE8
330
1F
100
AcDbEntity
  8
图层1
100
AcDbLine
 10
6348.430694046955
 20
3047.114602576771
 30
0.0
 11
6334.019989265538
 21
2459.44596834391
 31
0.0
  0
LINE
  5
BE9
330
1F
100
AcDbEntity
  8
图层1
100
AcDbLine
 10
5903.095849734557
 20
2509.391299501983
 30
0.0
 11
5903.199218648196
 21
1753.58289773038
 31
0.0
  0
LINE
  5
BEA
330
1F
100
AcDbEntity
  8
图层1
100
AcDbLine
 10
2484.994108291694
 20
10209.76146442261
 30
0.0
 11
2854.024645821077
 21
9847.161288456357
 31
0.0
  0
LINE
  5
BEB
330
1F
100
AcDbEntity
  8
图层1
100
AcDbLine
 10
2795.974445353322
 20
9911.599150594126
 30
0.0
 11
2958.857131983446
 21
9569.579147276895
 31
0.0
  0
LINE
  5
BEC
330
1F
100
AcDbEntity
  8
图层1
100
AcDbLine
 10
34.40992804052203
 20
10255.62006088578
 30
0.0
 11
866.339118123696
 21
8649.096005701872
 31
0.0
  0
LINE
  5
BED
330
1F
100
AcDbEntity
  8
图层1
100
AcDbLine
 10
6535.063384764247
 20
54.23968317956775
 30
0.0
 11
6953.517858002569
 21
394.5324420702864
 31
0.0
  0
LINE
  5
BEE
330
1F
100
AcDbEntity
  8
图层1
100
AcDbLine
 10
6869.827010234295
 20
310.9517888966121
 30
0.0
 11
7165.734237639525
 21
716.9149365692183
 31
0.0
  0
LINE
  5
BEF
330
1F
100
AcDbEntity
  8
图层1
100
AcDbLine
 10
7070.339262970491
 20
604.7820994957919
 30
0.0
 11
7626.286111138821
 21
1088.355928342401
 31
0.0
  0
LINE
  5
BF0
330
1F
100
AcDbEntity
  8
图层1
100
AcDbLine
 10
7542.595263370429
 20
1037.610513108787
 30
0.0
 11
8050.718636015838
 21
1189.846758809643
 31
0.0
  0
LINE
  5
BF1
330
1F
100
AcDbEntity
  8
图层1
100
AcDbLine
 10
7473.123383940606
 20
2468.797615100431
 30
0.0
 11
7889.065125310736
 21
1093.701406240002
 31
0.0
  0
LINE
  5
BF2
330
1F
100
AcDbEntity
  8
图层1
100
AcDbLine
 10
8419.74917354528
 20
1504.320475351899
 30
0.0
 11
7923.503080823926
 21
1111.574898137584
 31
0.0
  0
LINE
  5
BF3
330
1F
100
AcDbEntity
  8
图层1
100
AcDbLine
 10
8542.968668911841
 20
1663.7642713922
 30
0.0
 11
8331.115604050749
 21
1416.928056504232
 31
0.0
  0
LINE
  5
BF4
330
1F
100
AcDbEntity
  8
图层1
100
AcDbLine
 10
8484.120582317236
 20
1623.800306984737
 30
0.0
 11
8778.360780893477
 21
1727.236475774091
 31
0.0
  0
LINE
  5
BF5
330
1F
100
AcDbEntity
  8
图层1
100
AcDbLine
 10
8809.081271948526
 20
1847.765405239498
 30
0.0
 11
8719.632236579959
 21
1678.506251619886
 31
0.0
  0
LINE
  5
BF6
330
1F
100
AcDbEntity
  8
图层1
100
AcDbLine
 10
8806.727226598539
 20
2096.952400575819
 30
0.0
 11
8785.541990431376
 21
1746.680016898496
 31
0.0
  0
LINE
  5
BF7
330
1F
100
AcDbEntity
  8
图层1
100
AcDbLine
 10
9661.42578882858
 20
2495.846542116885
 30
0.0
 11
8771.418421521087
 21
2052.286788173475
 31
0.0
  0
LINE
  5
BF8
330
1F
100
AcDbEntity
  8
图层1
100
AcDbLine
 10
8334.437941877174
 20
1513.67308018862
 30
0.0
 11
8604.786795198744
 21
1115.789161652302
 31
0.0
  0
LINE
  5
BF9
330
1F
100
AcDbEntity
  8
图层1
100
AcDbLine
 10
8528.899480019582
 20
1267.363983613851
 30
0.0
 11
8870.392632722507
 21
381.5985333997279
 31
0.0
  0
LINE
  5
BFA
330
1F
100
AcDbEntity
  8
图层1
100
AcDbLine
 10
8371.197193297907
 20
1433.137031733456
 30
0.0
 11
7930.793350880209
 21
2787.066635756642
 31
0.0
  0
LINE
  5
BFB
330
1F
100
AcDbEntity
  8
图层1
100
AcDbLine
 10
7257.246432140878
 20
2328.699723101037
 30
0.0
 11
8093.333818431304
 21
2464.810259452967
 31
0.0
  0
LINE
  5
BFC
330
1F
100
AcDbEntity
  8
图层1
100
AcDbLine
 10
8261.622438067282
 20
2544.531551052152
 30
0.0
 11
8012.08397716249
 21
2443.870197036832
 31
0.0
  0
LINE
  5
BFD
330
1F
100
AcDbEntity
  8
图层1
100
AcDbLine
 10
7710.673116896768
 20
2436.017684518088
 30
0.0
 11
7839.100436577516
 21
2022.450950985546
 31
0.0
  0
LINE
  5
BFE
330
1F
100
AcDbEntity
  8
图层1
100
AcDbLine
 10
7069.001490256344
 20
2488.965985296357
 30
0.0
 11
7328.012415362174
 21
2289.437073409038
 31
0.0
  0
LINE
  5
BFF
330
1F
100
AcDbEntity
  8
图层1
100
AcDbLine
 10
7286.076983172273
 20
2360.109860274262
 30
0.0
 11
7448.576665709843
 21
1852.312715221987
 31
0.0
  0
LINE
  5
C00
330
1F
100
AcDbEntity
  8
图层1
100
AcDbLine
 10
7136.681947396545
 20
2009.363401088213
 30
0.0
 11
7307.044699267194
 21
1925.602977227424
 31
0.0
  0
LINE
  5
C01
330
1F
100
AcDbEntity
  8
图层1
100
AcDbLine
 10
7262.488243966306
 20
1930.838014605983
 30
0.0
 11
7448.576665709843
 21
1938.690527124786
 31
0.0
  0
LINE
  5
C02
330
1F
100
AcDbEntity
  8
图层1
100
AcDbLine
 10
7193.51943211176
 20
1907.622769757775
 30
0.0
 11
7668.737684706868
 21
1922.985502087254
 31
0.0
  0
LINE
  5
C03
330
1F
100
AcDbEntity
  8
图层1
100
AcDbLine
 10
7849.584294624976
 20
2087.888700472239
 30
0.0
 11
7603.213747707603
 21
1899.427877432773
 31
0.0
  0
LINE
  5
C04
330
1F
100
AcDbEntity
  8
图层1
100
AcDbLine
 10
7782.584933947773
 20
2065.602134417311
 30
0.0
 11
8403.877500557983
 21
2139.847239978878
 31
0.0
  0
LINE
  5
C05
330
1F
100
AcDbEntity
  8
图层1
100
AcDbLine
 10
4341.492764789321
 20
1349.387756442408
 30
0.0
 11
6350.819664494776
 21
3071.935847933162
 31
0.0
  0
LINE
  5
C06
330
1F
100
AcDbEntity
  8
图层1
100
AcDbLine
 10
3404.992440785632
 20
3367.906248432167
 30
0.0
 11
4199.239559917711
 21
1959.086922569438
 31
0.0
  0
LINE
  5
C07
330
1F
100
AcDbEntity
  8
图层1
100
AcDbLine
 10
4003.641432518839
 20
2278.73496904408
 30
0.0
 11
4655.635346779425
 21
1319.790655423775
 31
0.0
  0
LINE
  5
C08
330
1F
100
AcDbEntity
  8
图层1
100
AcDbLine
 10
3322.011346011366
 20
2095.233343380217
 30
0.0
 11
4110.331277573424
 21
2562.866633653485
 31
0.0
  0
LINE
  5
C09
330
1F
100
AcDbEntity
  8
图层1
100
AcDbLine
 10
3705.479778331182
 20
2757.339061632743
 30
0.0
 11
3898.087707927511
 21
2853.516030849384
 31
0.0
  0
LINE
  5
C0A
330
1F
100
AcDbEntity
  8
图层1
100
AcDbLine
 10
3822.211878183241
 20
2798.141433324204
 30
0.0
 11
4186.999367925397
 21
3246.967521930482
 31
0.0
  0
LINE
  5
C0B
330
1F
100
AcDbEntity
  8
图层1
100
AcDbLine
 10
4087.777165090026
 20
3209.079630245023
 30
0.0
 11
4633.499397883076
 21
2824.371492083771
 31
0.0
  0
LINE
  5
C0C
330
1F
100
AcDbEntity
  8
图层1
100
AcDbLine
 10
5357.237666896429
 20
2812.713659157894
 30
0.0
 11
4534.277195047645
 21
2856.430510855401
 31
0.0
  0
LINE
  5
C0D
330
1F
100
AcDbEntity
  8
图层1
100
AcDbLine
 10
4934.084244426515
 20
3392.690302856678
 30
0.0
 11
4084.66062750423
 21
2094.99234265772
 31
0.0
  0
LINE
  5
C0E
330
1F
100
AcDbEntity
  8
图层1
100
AcDbLine
 10
4026.294694776532
 20
2561.305137103705
 30
0.0
 11
4291.859981683375
 21
2331.063219886743
 31
0.0
  0
LINE
  5
C0F
330
1F
100
AcDbEntity
  8
图层1
100
AcDbLine
 10
4423.183506118192
 20
2648.738840498704
 30
0.0
 11
4951.395607497952
 21
2607.936468807243
 31
0.0
  0
LINE
  5
C10
330
1F
100
AcDbEntity
  8
图层1
100
AcDbLine
 10
4498.286295778409
 20
3268.409531279647
 30
0.0
 11
4752.203007785779
 21
3086.402946238105
 31
0.0
  0
LINE
  5
C11
330
1F
100
AcDbEntity
  8
图层1
100
AcDbLine
 10
5318.434008073237
 20
3143.046041964456
 30
0.0
 11
5227.134880108003
 21
2060.369239943194
 31
0.0
  0
LINE
  5
C12
330
1F
100
AcDbEntity
  8
图层1
100
AcDbLine
 10
5176.077434288048
 20
2107.717215645568
 30
0.0
 11
5737.709338308139
 21
2020.305460997251
 31
0.0
  0
LINE
  5
C13
330
1F
100
AcDbEntity
  8
图层1
100
AcDbLine
 10
5080.157645565575
 20
2027.524159906437
 30
0.0
 11
5723.324651552598
 21
1330.148373501452
 31
0.0
  0
LINE
  5
C14
330
1F
100
AcDbEntity
  8
图层1
100
AcDbLine
 10
6173.541743260751
 20
1054.868499072331
 30
0.0
 11
5594.691297234502
 21
1444.848342954826
 31
0.0
  0
LINE
  5
C15
330
1F
100
AcDbEntity
  8
图层1
100
AcDbLine
 10
6145.977402821825
 20
1761.420255162146
 30
0.0
 11
4838.072822534247
 21
629.7473012611344
 31
0.0
  0
LINE
  5
C16
330
1F
100
AcDbEntity
  8
图层1
100
AcDbLine
 10
5219.394400212158
 20
583.6620921961776
 30
0.0
 11
5960.692727120886
 21
1299.145681713101
 31
0.0
  0
LINE
  5
C17
330
1F
100
AcDbEntity
  8
图层1
100
AcDbLine
 10
6316.856296070736
 20
1734.515620834868
 30
0.0
 11
5863.816365753476
 21
1193.860156819258
 31
0.0
  0
LINE
  5
C18
330
1F
100
AcDbEntity
  8
图层1
100
AcDbLine
 10
5701.300978641783
 20
530.2182004953256
 30
0.0
 11
4977.4298067395
 21
1515.605092485949
 31
0.0
  0
LINE
  5
C19
330
1F
100
AcDbEntity
  8
图层1
100
AcDbLine
 10
4854.909516518645
 20
1831.461754265653
 30
0.0
 11
5040.114497365664
 21
1401.782898703536
 31
0.0
  0
LINE
  5
C1A
330
1F
100
AcDbEntity
  8
图层1
100
AcDbLine
 10
4567.100458265865
 20
1060.746669568024
 30
0.0
 11
5723.979790132028
 21
2083.060063300106
 31
0.0
  0
LINE
  5
C1B
330
1F
100
AcDbEntity
  8
图层1
100
AcDbLine
 10
4674.776175544073
 20
804.5523626566618
 30
0.0
 11
5536.197383947089
 21
1589.563484792209
 31
0.0
  0
LINE
  5
C1D
330
1F
100
AcDbEntity
  8
图层1
100
AcDbLine
 10
5637.659012180695
 20
1780.094022384995
 30
0.0
 11
5995.287325668266
 21
1772.548443926998
 31
0.0
  0
LINE
  5
C1E
330
1F
100
AcDbEntity
  8
图层1
100
AcDbLine
 10
6357.95282272366
 20
1676.971145825087
 30
0.0
 11
5881.954445737182
 21
1785.12437899091
 31
0.0
  0
LINE
  5
C1F
330
1F
100
AcDbEntity
  8
图层1
100
AcDbLine
 10
6133.80542024877
 20
2081.91716070494
 30
0.0
 11
6128.768471077552
 21
1709.668594410938
 31
0.0
  0
LINE
  5
C20
330
1F
100
AcDbEntity
  8
图层1
100
AcDbLine
 10
6279.482456687431
 20
1663.679350646115
 30
0.0
 11
6460.389775332529
 21
2095.591055692251
 31
0.0
  0
LINE
  5
C21
330
1F
100
AcDbEntity
  8
图层1
100
AcDbLine
 10
6262.522454163584
 20
1714.492528280204
 30
0.0
 11
6734.57734225545
 21
1483.010419777424
 31
0.0
  0
LINE
  5
C22
330
1F
100
AcDbEntity
  8
图层1
100
AcDbLine
 10
6030.569409529854
 20
948.1736381861164
 30
0.0
 11
6511.104298883643
 21
1656.734662677661
 31
0.0
  0
LINE
  5
C23
330
1F
100
AcDbEntity
  8
图层1
100
AcDbLine
 10
6526.811920216075
 20
940.0013010728335
 30
0.0
 11
6080.541364558682
 21
1100.446987720662
 31
0.0
  0
LINE
  5
C24
330
1F
100
AcDbEntity
  8
图层1
100
AcDbLine
 10
4908.76495490491
 20
3087.386807517997
 30
0.0
 11
5163.102174465662
 21
3394.30597448754
 31
0.0
  0
LINE
  5
C25
330
1F
100
AcDbEntity
  8
图层1
100
AcDbLine
 10
4926.427444127389
 20
3154.415144353615
 30
0.0
 11
4873.277773992509
 21
1766.979210750714
 31
0.0
  0
LINE
  5
C26
330
1F
100
AcDbEntity
  8
图层1
100
AcDbLine
 10
4905.06711367803
 20
3118.944314847559
 30
0.0
 11
5484.462455300091
 21
3099.160851485304
 31
0.0
  0
LINE
  5
C27
330
1F
100
AcDbEntity
  8
图层1
100
AcDbLine
 10
5201.793791699923
 20
3207.139430716784
 30
0.0
 11
5145.274435619417
 21
3076.610582583909
 31
0.0
  0
LINE
  5
C28
330
1F
100
AcDbEntity
  8
图层1
100
AcDbLine
 10
5053.430569887279
 20
3323.557063794496
 30
0.0
 11
5064.02787590347
 21
3083.666233660571
 31
0.0
  0
LINE
  5
C29
330
1F
100
AcDbEntity
  8
图层1
100
AcDbLine
 10
5171.459586290295
 20
3179.295355192172
 30
0.0
 11
5293.205430047296
 21
3191.453915676311
 31
0.0
  0
LINE
  5
C2A
330
1F
100
AcDbEntity
  8
图层1
100
AcDbLine
 10
5256.6817472392
 20
3200.138564408602
 30
0.0
 11
5369.011485059572
 21
3117.050444392463
 31
0.0
  0
LINE
  5
C2B
330
1F
100
AcDbEntity
  8
图层1
100
AcDbLine
 10
7278.468702975486
 20
6920.466369415798
 30
0.0
 11
7524.376082152945
 21
6609.649819240575
 31
0.0
  0
LINE
  5
C2C
330
1F
100
AcDbEntity
  8
图层1
100
AcDbLine
 10
7364.920508642623
 20
6782.325661093874
 30
0.0
 11
7464.820352133947
 21
6555.928432670936
 31
0.0
  0
LINE
  5
C2D
330
1F
100
AcDbEntity
  8
图层1
100
AcDbLine
 10
7491.716427782086
 20
6621.161501384985
 30
0.0
 11
7639.64507824363
 21
6619.242902210612
 31
0.0
  0
LINE
  5
C2E
330
1F
100
AcDbEntity
  8
图层1
100
AcDbLine
 10
7606.985658269434
 20
6726.685675349877
 30
0.0
 11
7599.300964771422
 21
6588.544967027953
 31
0.0
  0
LINE
  5
C2F
330
1F
100
AcDbEntity
  8
图层1
100
AcDbLine
 10
7658.856694790419
 20
6751.627725911244
 30
0.0
 11
7587.774041722704
 21
6674.882887954595
 31
0.0
  0
LINE
  5
C30
330
1F
100
AcDbEntity
  8
图层1
100
AcDbLine
 10
7631.96061914228
 20
6745.87192838814
 30
0.0
 11
7785.65261392988
 21
6692.150541818502
 31
0.0
  0
LINE
  5
C31
330
1F
100
AcDbEntity
  8
图层1
100
AcDbLine
 10
7758.756538281684
 20
6724.767076175519
 30
0.0
 11
7768.362346555107
 21
6619.242902210612
 31
0.0
  0
LINE
  5
C32
330
1F
100
AcDbEntity
  8
图层1
100
AcDbLine
 10
7770.28346133046
 20
6671.04568960588
 30
0.0
 11
7728.018233082841
 21
6546.335349700914
 31
0.0
  0
LINE
  5
C33
330
1F
100
AcDbEntity
  8
图层1
100
AcDbLine
 10
7754.914308731038
 20
6669.127090431492
 30
0.0
 11
7933.581498788088
 21
6628.835985180635
 31
0.0
  0
LINE
  5
C34
330
1F
100
AcDbEntity
  8
图层1
100
AcDbLine
 10
7733.781577408897
 20
6609.649819240575
 30
0.0
 11
7904.764073967935
 21
6554.009833496578
 31
0.0
  0
LINE
  5
C35
330
1F
100
AcDbEntity
  8
图层1
100
AcDbLine
 10
7551.272157801142
 20
6626.917386006278
 30
0.0
 11
7760.677653057094
 21
6559.765631019667
 31
0.0
  0
LINE
  5
C36
330
1F
100
AcDbEntity
  8
图层1
100
AcDbLine
 10
7656.935580015126
 20
6619.242902210612
 30
0.0
 11
7455.214543860582
 21
6435.055291114685
 31
0.0
  0
LINE
  5
C37
330
1F
100
AcDbEntity
  8
图层1
100
AcDbLine
 10
7643.487542190998
 20
6684.476058022851
 30
0.0
 11
7482.110619508779
 21
6523.311898313933
 31
0.0
  0
LINE
  5
C38
330
1F
100
AcDbEntity
  8
图层1
100
AcDbLine
 10
7620.433696093562
 20
6678.720173401544
 30
0.0
 11
7722.254654360179
 21
6655.696722014535
 31
0.0
  0
LINE
  5
C39
330
1F
100
AcDbEntity
  8
图层1
100
AcDbLine
 10
7706.885501760699
 20
6686.394657197209
 30
0.0
 11
7687.673885213969
 21
6600.056736270552
 31
0.0
  0
LINE
  5
C3A
330
1F
100
AcDbEntity
  8
图层1
100
AcDbLine
 10
7710.727731311404
 20
6619.242902210612
 30
0.0
 11
7610.827887820139
 21
6596.219450823618
 31
0.0
  0
LINE
  5
C3B
330
1F
100
AcDbEntity
  8
图层1
100
AcDbLine
 10
7451.253709615325
 20
6612.813922691017
 30
0.0
 11
7485.834478761536
 21
6382.57940882113
 31
0.0
  0
LINE
  5
C3C
330
1F
100
AcDbEntity
  8
图层1
100
AcDbLine
 10
7505.046095308324
 20
6572.522904538335
 30
0.0
 11
7422.436519191833
 21
6298.160087068846
 31
0.0
  0
LINE
  5
C3D
330
1F
100
AcDbEntity
  8
图层1
100
AcDbLine
 10
7424.357633967128
 20
6384.498007995503
 30
0.0
 11
7476.222810572422
 21
6035.018827635799
 31
0.0
  0
LINE
  5
C3E
330
1F
100
AcDbEntity
  8
图层1
100
AcDbLine
 10
7558.832386688912
 20
6374.614713819338
 30
0.0
 11
7455.090079250282
 21
6332.405009394079
 31
0.0
  0
LINE
  5
C3F
330
1F
100
AcDbEntity
  8
图层1
100
AcDbLine
 10
7506.96135016787
 20
6388.045082236281
 30
0.0
 11
7566.517080186925
 21
6297.869875862705
 31
0.0
  0
LINE
  5
C40
330
1F
100
AcDbEntity
  8
图层1
100
AcDbLine
 10
7537.699655366771
 20
6320.893327249685
 30
0.0
 11
7687.549655000331
 21
6274.846424475709
 31
0.0
  0
LINE
  5
C41
330
1F
100
AcDbEntity
  8
图层1
100
AcDbLine
 10
7647.2053071314
 20
6274.846424475709
 30
0.0
 11
8277.343142071217
 21
6384.207796789347
 31
0.0
  0
LINE
  5
C42
330
1F
100
AcDbEntity
  8
图层1
100
AcDbLine
 10
8202.418259452796
 20
6537.697472702615
 30
0.0
 11
8183.206642906066
 21
6238.392604671743
 31
0.0
  0
LINE
  5
C43
330
1F
100
AcDbEntity
  8
图层1
100
AcDbLine
 10
8112.124224234896
 20
6518.511306762555
 30
0.0
 11
8148.626108156461
 21
6280.602309097016
 31
0.0
  0
LINE
  5
C44
330
1F
100
AcDbEntity
  8
图层1
100
AcDbLine
 10
8112.124224234896
 20
6416.824331146378
 30
0.0
 11
8221.629875999528
 21
6418.74301741894
 31
0.0
  0
LINE
  5
C45
330
1F
100
AcDbEntity
  8
图层1
100
AcDbLine
 10
8315.766140768131
 20
6328.567811045363
 30
0.0
 11
8167.837490306586
 21
6351.591262432344
 31
0.0
  0
LINE
  5
C46
330
1F
100
AcDbEntity
  8
图层1
100
AcDbLine
 10
8375.321870787187
 20
6345.835377811051
 30
0.0
 11
7823.951382413158
 21
6223.043637080443
 31
0.0
  0
LINE
  5
C47
330
1F
100
AcDbEntity
  8
图层1
100
AcDbLine
 10
7902.718494582341
 20
6336.242294841014
 30
0.0
 11
7981.485841148127
 21
6236.474005497415
 31
0.0
  0
LINE
  5
C48
330
1F
100
AcDbEntity
  8
图层1
100
AcDbLine
 10
8235.077913823657
 20
6347.753976985409
 30
0.0
 11
7699.076578049049
 21
6238.392604671743
 31
0.0
  0
LINE
  5
C49
330
1F
100
AcDbEntity
  8
图层1
100
AcDbLine
 10
7485.828618845786
 20
6290.195392067039
 30
0.0
 11
7749.02649979468
 21
6234.555406323027
 31
0.0
  0
LINE
  5
C4A
330
1F
100
AcDbEntity
  8
图层1
100
AcDbLine
 10
7737.499576745964
 20
6311.300244279661
 30
0.0
 11
7745.184035847372
 21
6136.705716153786
 31
0.0
  0
LINE
  5
C4B
330
1F
100
AcDbEntity
  8
图层1
100
AcDbLine
 10
7839.320535012579
 20
6374.614713819338
 30
0.0
 11
7873.901304158791
 21
6157.810568366408
 31
0.0
  0
LINE
  5
C4C
330
1F
100
AcDbEntity
  8
图层1
100
AcDbLine
 10
8423.350677757467
 20
6363.102944576724
 30
0.0
 11
8192.812451179316
 21
6251.822973088715
 31
0.0
  0
LINE
  5
C4D
330
1F
100
AcDbEntity
  8
图层1
100
AcDbLine
 10
8265.8162190225
 20
6272.927825301351
 30
0.0
 11
7612.62453798519
 21
6125.194034009391
 31
0.0
  0
LINE
  5
C4E
330
1F
100
AcDbEntity
  8
图层1
100
AcDbLine
 10
8926.319668520244
 20
5463.477731814103
 30
0.0
 11
9074.036658825413
 21
4647.765800255267
 31
0.0
  0
LINE
  5
C4F
330
1F
100
AcDbEntity
  8
图层1
100
AcDbLine
 10
9039.581526272582
 20
4772.1717319473
 30
0.0
 11
9487.077038715712
 21
3943.443061328614
 31
0.0
  0
LINE
  5
C50
330
1F
100
AcDbEntity
  8
图层1
100
AcDbLine
 10
8678.978250763497
 20
4928.371816781325
 30
0.0
 11
8891.864535967473
 21
4351.299027108053
 31
0.0
  0
LINE
  5
C51
330
1F
100
AcDbEntity
  8
图层1
100
AcDbLine
 10
8665.78500207572
 20
5719.062177121222
 30
0.0
 11
8696.197261562922
 21
4838.266811557861
 31
0.0
  0
LINE
  5
C53
330
1F
100
AcDbEntity
  8
图层1
100
AcDbLine
 10
9348.503860927246
 20
4410.998921301074
 30
0.0
 11
9817.110774599134
 21
4513.203521526525
 31
0.0
  0
LINE
  5
C54
330
1F
100
AcDbEntity
  8
图层1
100
AcDbLine
 10
10845.89094206586
 20
5336.219246937068
 30
0.0
 11
9698.61249614385
 21
4459.411585413971
 31
0.0
  0
LINE
  5
C55
330
1F
100
AcDbEntity
  8
图层1
100
AcDbLine
 10
11131.36400350905
 20
5072.639099668556
 30
0.0
 11
9914.063783664433
 21
4152.797871835796
 31
0.0
  0
LINE
  5
C56
330
1F
100
AcDbEntity
  8
图层1
100
AcDbLine
 10
10425.55051354651
 20
5552.584678750911
 30
0.0
 11
9569.131329216938
 21
4826.394281566206
 31
0.0
  0
LINE
  5
C57
330
1F
100
AcDbEntity
  8
图层1
100
AcDbLine
 10
10075.44211272645
 20
5670.92683368069
 30
0.0
 11
10770.27271421731
 21
4729.568866242193
 31
0.0
  0
LINE
  5
C58
330
1F
100
AcDbEntity
  8
图层1
100
AcDbLine
 10
10566.19200719363
 20
5954.816974978346
 30
0.0
 11
11040.3283373554
 21
5541.654812590035
 31
0.0
  0
LINE
  5
C59
330
1F
100
AcDbEntity
  8
图层1
100
AcDbLine
 10
11161.18652107642
 20
5722.703404517412
 30
0.0
 11
10956.65717890393
 21
5560.223887775126
 31
0.0
  0
LINE
  5
C5A
330
1F
100
AcDbEntity
  8
图层1
100
AcDbLine
 10
10766.07302980666
 20
5745.91481382243
 30
0.0
 11
11268.09974611894
 21
5936.247899793253
 31
0.0
  0
LINE
  5
C5B
330
1F
100
AcDbEntity
  8
图层1
100
AcDbLine
 10
11086.81223614071
 20
5913.036577586439
 30
0.0
 11
11161.18652107642
 21
5643.784769657116
 31
0.0
  0
LINE
  5
C5C
330
1F
100
AcDbEntity
  8
图层1
100
AcDbLine
 10
11151.88964756072
 20
6177.646051395849
 30
0.0
 11
10584.78551982844
 21
5880.54067423799
 31
0.0
  0
LINE
  5
C5D
330
1F
100
AcDbEntity
  8
图层1
100
AcDbLine
 10
10882.28289396816
 20
6084.800588372197
 30
0.0
 11
10914.82159967819
 21
5908.394330564731
 31
0.0
  0
LINE
  5
C5E
330
1F
100
AcDbEntity
  8
图层1
100
AcDbLine
 10
10928.76679275342
 20
5959.459309098286
 30
0.0
 11
10775.3696689257
 21
5908.394330564731
 31
0.0
  0
LINE
  5
C5F
330
1F
100
AcDbEntity
  8
图层1
100
AcDbLine
 10
10673.10499783943
 20
5964.101556120009
 30
0.0
 11
10826.5021216672
 21
5950.174727956624
 31
0.0
  0
LINE
  5
C60
330
1F
100
AcDbEntity
  8
图层1
100
AcDbLine
 10
10807.90837463573
 20
5973.386050163438
 30
0.0
 11
10812.55692859192
 21
5885.182921259712
 31
0.0
  0
LINE
  5
C61
330
1F
100
AcDbEntity
  8
图层1
100
AcDbLine
 10
10970.60237197916
 20
6173.003804374127
 30
0.0
 11
10979.89901109825
 21
6033.735609838656
 31
0.0
  0
LINE
  5
C62
330
1F
100
AcDbEntity
  8
图层1
100
AcDbLine
 10
11031.0314638397
 20
6265.849180299575
 30
0.0
 11
11147.24132800126
 21
6117.296491720646
 31
0.0
  0
LINE
  5
C63
330
1F
100
AcDbEntity
  8
图层1
100
AcDbLine
 10
11096.10910965642
 20
6242.63785809276
 30
0.0
 11
10947.36030538822
 21
6117.296491720646
 31
0.0
  0
LINE
  5
C64
330
1F
100
AcDbEntity
  8
图层1
100
AcDbLine
 10
8679.997641705211
 20
1697.751905631308
 30
0.0
 11
9296.087617846033
 21
1859.667287324938
 31
0.0
  0
LINE
  5
C65
330
1F
100
AcDbEntity
  8
图层1
100
AcDbLine
 10
9155.575745534969
 20
1809.293607213699
 30
0.0
 11
10142.76082471776
 21
2374.198168502514
 31
0.0
  0
LINE
  5
C6A
330
1F
100
AcDbEntity
  8
图层1
100
AcDbLine
 10
9323.115658796627
 20
4217.201330184126
 30
0.0
 11
10728.36611281283
 21
2506.207598956321
 31
0.0
  0
LINE
  5
C6B
330
1F
100
AcDbEntity
  8
图层1
100
AcDbLine
 10
8430.79769307317
 20
2606.060025162214
 30
0.0
 11
10188.9650883241
 21
3432.71993930778
 31
0.0
  0
LINE
  5
C6C
330
1F
100
AcDbEntity
  8
图层1
100
AcDbLine
 10
9812.416982093537
 20
5724.081994844823
 30
0.0
 11
10507.28555583837
 21
5491.45001589078
 31
0.0
  0
LINE
  5
C6D
330
1F
100
AcDbEntity
  8
图层1
100
AcDbLine
 10
10783.65371460537
 20
5345.562183873456
 30
0.0
 11
10317.77588089066
 21
5566.365443230989
 31
0.0
  0
LINE
  5
C6E
330
1F
100
AcDbEntity
  8
图层1
100
AcDbLine
 10
11186.36142227426
 20
5085.329830161562
 30
0.0
 11
10625.7289854823
 21
5432.30633081016
 31
0.0
  0
LINE
  5
C6F
330
1F
100
AcDbEntity
  8
图层1
100
AcDbLine
 10
10388.85431481909
 20
5017.745284213573
 30
0.0
 11
10649.43000067386
 21
4631.339602112439
 31
0.0
  0
LINE
  5
C70
330
1F
100
AcDbEntity
  8
图层1
100
AcDbLine
 10
10005.88702249317
 20
5069.003185262617
 30
0.0
 11
10195.39646304416
 21
4781.170369694639
 31
0.0
  0
LINE
  5
C71
330
1F
100
AcDbEntity
  8
图层1
100
AcDbLine
 10
10155.91539796168
 20
5120.261086311661
 30
0.0
 11
9994.042492011448
 21
5017.745284213573
 31
0.0
  0
LINE
  5
C72
330
1F
100
AcDbEntity
  8
图层1
100
AcDbLine
 10
9634.764026252264
 20
5337.121410104305
 30
0.0
 11
9540.009188778411
 21
5238.548543571121
 31
0.0
  0
LINE
  5
C73
330
1F
100
AcDbEntity
  8
图层1
100
AcDbLine
 10
9563.698015345204
 20
5301.635164216645
 30
0.0
 11
9559.74983851798
 21
5124.204021876551
 31
0.0
  0
LINE
  5
C74
330
1F
100
AcDbEntity
  8
图层1
100
AcDbLine
 10
9575.54231143027
 20
5199.119362118572
 30
0.0
 11
9504.476066126606
 21
5116.318150746756
 31
0.0
  0
LINE
  5
C75
330
1F
100
AcDbEntity
  8
图层1
100
AcDbLine
 10
9500.528123695929
 20
5163.633116230911
 30
0.0
 11
9626.867672597818
 21
4927.058201711979
 31
0.0
  0
LINE
  5
C76
330
1F
100
AcDbEntity
  8
图层1
100
AcDbLine
 10
9784.79240172083
 20
5143.918525504637
 30
0.0
 11
9622.919730167197
 21
5005.916564617106
 31
0.0
  0
LINE
  5
C77
330
1F
100
AcDbEntity
  8
图层1
100
AcDbLine
 10
9532.113069520567
 20
5199.119362118572
 30
0.0
 11
9713.72639081377
 21
4911.286546550608
 31
0.0
  0
LINE
  5
C78
330
1F
100
AcDbEntity
  8
图层1
100
AcDbLine
 10
9686.089621816414
 20
5001.973629052202
 30
0.0
 11
9603.179080427686
 21
4946.772792438253
 31
0.0
  0
LINE
  5
C79
330
1F
100
AcDbEntity
  8
图层1
100
AcDbLine
 10
9807.279007974955
 20
5693.441979965912
 30
0.0
 11
9925.43225459161
 21
5531.971670080054
 31
0.0
  0
LINE
  5
C7A
330
1F
100
AcDbEntity
  8
图层1
100
AcDbLine
 10
9903.667121163106
 20
5575.44438551978
 30
0.0
 11
9937.869339752712
 21
5454.341740203589
 31
0.0
  0
LINE
  5
C7B
330
1F
100
AcDbEntity
  8
图层1
100
AcDbLine
 10
9909.885663743658
 20
5491.604092608574
 30
0.0
 11
10003.16450564156
 21
5445.026152102339
 31
0.0
  0
LINE
  5
C7C
330
1F
100
AcDbEntity
  8
图层1
100
AcDbLine
 10
9968.962287051954
 20
5479.183279440845
 30
0.0
 11
10130.64556612901
 21
5268.02989108046
 31
0.0
  0
LINE
  5
C7D
330
1F
100
AcDbEntity
  8
图层1
100
AcDbLine
 10
9937.869339752712
 20
5556.813209317309
 30
0.0
 11
9819.716327532661
 21
5469.867691339609
 31
0.0
  0
LINE
  5
C7E
330
1F
100
AcDbEntity
  8
图层1
100
AcDbLine
 10
9959.634473181216
 20
5631.338001225469
 30
0.0
 11
9881.901987734602
 21
5559.918434383789
 31
0.0
  0
LINE
  5
C7F
330
1F
100
AcDbEntity
  8
图层1
100
AcDbLine
 10
9912.994935033903
 20
5640.653589326718
 30
0.0
 11
10012.49255390896
 21
5538.182033114795
 31
0.0
  0
LINE
  5
C80
330
1F
100
AcDbEntity
  8
图层1
100
AcDbLine
 10
10118.20848096791
 20
5659.284765529218
 30
0.0
 11
9981.399606609661
 21
5535.076895146519
 31
0.0
  0
LINE
  5
C83
330
1F
100
AcDbEntity
  8
图层1
100
AcDbLine
 10
7987.356045014866
 20
7900.886568338281
 30
0.0
 11
8151.641102780706
 21
7509.35898021516
 31
0.0
  0
LINE
  5
C84
330
1F
100
AcDbEntity
  8
图层1
100
AcDbLine
 10
2250.854455485243
 20
5697.430897854506
 30
0.0
 11
2259.103015576665
 21
5458.536117897184
 31
0.0
  0
LINE
  5
C85
330
1F
100
AcDbEntity
  8
图层1
100
AcDbLine
 10
2440.572508483486
 20
6237.003452989394
 30
0.0
 11
2234.35733530234
 21
5610.934559517297
 31
0.0
  0
LINE
  5
C86
330
1F
100
AcDbEntity
  8
图层1
100
AcDbLine
 10
2209.611264729699
 20
5689.193116815518
 30
0.0
 11
2395.205037682202
 21
5639.766720639284
 31
0.0
  0
LINE
  5
C87
330
1F
100
AcDbEntity
  8
图层1
100
AcDbLine
 10
2634.414841527412
 20
5668.598736732504
 30
0.0
 11
2316.843326515112
 21
5648.00435664949
 31
0.0
  0
LINE
  5
C88
330
1F
100
AcDbEntity
  8
图层1
100
AcDbLine
 10
2140.256072568534
 20
6947.32871493638
 30
0.0
 11
2623.397506699026
 21
5684.013993231729
 31
0.0
  0
LINE
  5
C89
330
1F
100
AcDbEntity
  8
图层1
100
AcDbLine
 10
2128.645874922922
 20
6442.38961807211
 30
0.0
 11
1928.194624114841
 21
6151.20803885708
 31
0.0
  0
LINE
  5
C8A
330
1F
100
AcDbEntity
  8
图层1
100
AcDbLine
 10
1969.195830046899
 20
6246.75199906917
 30
0.0
 11
1818.857294366231
 21
5555.195639661882
 31
0.0
  0
LINE
  5
C8B
330
1F
100
AcDbEntity
  8
图层1
100
AcDbLine
 10
1198.992093253416
 20
5882.316226432134
 30
0.0
 11
1987.13080843835
 21
5500.140385583804
 31
0.0
  0
LINE
  5
C8C
330
1F
100
AcDbEntity
  8
图层1
100
AcDbLine
 10
629.1759886773665
 20
6264.711930945753
 30
0.0
 11
396.8346508343833
 21
5027.190001738728
 31
0.0
  0
LINE
  5
C8D
330
1F
100
AcDbEntity
  8
图层1
100
AcDbLine
 10
752.1803870699381
 20
5573.155571538479
 30
0.0
 11
1180.417416272511
 21
5286.52369090224
 31
0.0
  0
LINE
  5
C8E
330
1F
100
AcDbEntity
  8
图层1
100
AcDbLine
 10
1071.080476822042
 20
5345.669917455268
 30
0.0
 11
1517.540134117299
 21
5190.979730690164
 31
0.0
  0
LINE
  5
C8F
330
1F
100
AcDbEntity
  8
图层1
100
AcDbLine
 10
1399.091685471534
 20
5213.728223584087
 30
0.0
 11
1831.884664420796
 21
5195.529429268955
 31
0.0
  0
LINE
  5
C90
330
1F
100
AcDbEntity
  8
图层1
100
AcDbLine
 10
1809.106086581365
 20
5623.202400933926
 30
0.0
 11
1749.881862258481
 21
4890.698754317597
 31
0.0
  0
LINE
  5
C91
330
1F
100
AcDbEntity
  8
图层1
100
AcDbLine
 10
2255.566134174763
 20
5564.056174380913
 30
0.0
 11
2191.785960105075
 21
4881.599212131234
 31
0.0
  0
LINE
  5
C92
330
1F
100
AcDbEntity
  8
图层1
100
AcDbLine
 10
1308.051921051288
 20
4948.392082322175
 30
0.0
 11
2624.653485991877
 21
4889.245855769191
 31
0.0
  0
LINE
  5
C93
330
1F
100
AcDbEntity
  8
图层1
100
AcDbLine
 10
1672.509166482313
 20
4952.941925929777
 30
0.0
 11
1535.837699445664
 21
4784.602498399535
 31
0.0
  0
LINE
  5
C94
330
1F
100
AcDbEntity
  8
图层1
100
AcDbLine
 10
839.0080543714587
 20
2977.043698786705
 30
0.0
 11
1599.617483217212
 21
4893.795554347981
 31
0.0
  0
LINE
  5
C95
330
1F
100
AcDbEntity
  8
图层1
100
AcDbLine
 10
1522.170240503504
 20
4761.853860476815
 30
0.0
 11
1681.620285379585
 21
4698.157935345011
 31
0.0
  0
LINE
  5
C96
330
1F
100
AcDbEntity
  8
图层1
100
AcDbLine
 10
1581.394855124528
 20
5721.843306205196
 30
0.0
 11
1389.265540451045
 21
5075.292720029979
 31
0.0
  0
LINE
  5
C97
330
1F
100
AcDbEntity
  8
图层1
100
AcDbLine
 10
1257.188662673232
 20
5904.089835712312
 30
0.0
 11
582.9428366855148
 21
4889.504007038519
 31
0.0
  0
LINE
  5
C98
330
1F
100
AcDbEntity
  8
图层1
100
AcDbLine
 10
1235.976351117833
 20
5067.106496730503
 30
0.0
 11
1372.64781815454
 21
4957.913295753275
 31
0.0
  0
LINE
  5
C99
330
1F
100
AcDbEntity
  8
图层1
100
AcDbLine
 10
1253.819219157159
 20
5073.400094150905
 30
0.0
 11
1154.688184780594
 21
4732.838673005423
 31
0.0
  0
LINE
  5
C9A
330
1F
100
AcDbEntity
  8
图层1
100
AcDbLine
 10
1144.775003283286
 20
4776.398799129271
 30
0.0
 11
1277.610620571709
 21
4730.858594758149
 31
0.0
  0
LINE
  5
C9B
330
1F
100
AcDbEntity
  8
图层1
100
AcDbLine
 10
1214.846002163949
 20
4704.743693289089
 30
0.0
 11
1468.547184245022
 21
5296.988679268839
 31
0.0
  0
LINE
  5
C9C
330
1F
100
AcDbEntity
  8
图层1
100
AcDbLine
 10
2499.354134758528
 20
3473.160258478316
 30
0.0
 11
3491.646858846945
 21
3333.190640246107
 31
0.0
  0
LINE
  5
C9D
330
1F
100
AcDbEntity
  8
图层1
100
AcDbLine
 10
3116.033332463298
 20
3417.172469196962
 30
0.0
 11
3051.562330752729
 21
2972.068775757512
 31
0.0
  0
LINE
  5
C9E
330
1F
100
AcDbEntity
  8
图层1
100
AcDbLine
 10
2877.770782112087
 20
3008.46085329331
 30
0.0
 11
3073.986908213528
 21
3005.661507337853
 31
0.0
  0
LINE
  5
C9F
330
1F
100
AcDbEntity
  8
图层1
100
AcDbLine
 10
2622.689896239843
 20
3299.59790866578
 30
0.0
 11
2956.25738867192
 21
3263.205686101215
 31
0.0
  0
LINE
  5
CA0
330
1F
100
AcDbEntity
  8
图层1
100
AcDbLine
 10
2647.917594670494
 20
3330.391149261898
 30
0.0
 11
2642.311743028813
 21
3044.85293082905
 31
0.0
  0
LINE
  5
CA1
330
1F
100
AcDbEntity
  8
图层1
100
AcDbLine
 10
2813.299780401519
 20
3310.795437516286
 30
0.0
 11
2762.844383540332
 21
3019.658527172612
 31
0.0
  0
LINE
  5
CA2
330
1F
100
AcDbEntity
  8
图层1
100
AcDbLine
 10
2625.493017209695
 20
3089.643336288709
 30
0.0
 11
2953.454267702067
 21
3047.652421813274
 31
0.0
  0
LINE
  5
CA3
330
1F
100
AcDbEntity
  8
图层1
100
AcDbLine
 10
2625.493017209695
 20
3184.82269409004
 30
0.0
 11
2832.921627190548
 21
3190.421531029691
 31
0.0
  0
LINE
  5
CA4
330
1F
100
AcDbEntity
  8
图层1
100
AcDbLine
 10
2129.346850314528
 20
3453.564546732702
 30
0.0
 11
2608.674681688602
 21
3467.561566567446
 31
0.0
  0
LINE
  5
CA5
330
1F
100
AcDbEntity
  8
图层1
100
AcDbLine
 10
2395.639829768044
 20
3551.54325048949
 30
0.0
 11
2420.867918496778
 21
3089.643336288709
 31
0.0
  0
LINE
  5
CA6
330
1F
100
AcDbEntity
  8
图层1
100
AcDbLine
 10
2165.786642326451
 20
3487.157278313059
 30
0.0
 11
2120.937487404912
 21
3321.992966366791
 31
0.0
  0
LINE
  5
CA7
330
1F
100
AcDbEntity
  8
图层1
100
AcDbLine
 10
2132.149971284323
 20
3403.175449362219
 30
0.0
 11
2132.020812560165
 21
2138.954877754052
 31
0.0
  0
LINE
  5
CA8
330
1F
100
AcDbEntity
  8
图层1
100
AcDbLine
 10
1414.559589559039
 20
3361.184534886798
 30
0.0
 11
2165.786642326451
 21
3363.983880842225
 31
0.0
  0
LINE
  5
CA9
330
1F
100
AcDbEntity
  8
图层1
100
AcDbLine
 10
1445.393529929338
 20
3585.135982069803
 30
0.0
 11
1442.590408959485
 21
3324.792457351044
 31
0.0
  0
LINE
  5
CAA
330
1F
100
AcDbEntity
  8
图层1
100
AcDbLine
 10
1232.359068306863
 20
3562.740924368791
 30
0.0
 11
1473.424349329785
 21
3531.947538743921
 31
0.0
  0
LINE
  5
CAB
330
1F
100
AcDbEntity
  8
图层1
100
AcDbLine
 10
1263.19300867722
 20
3786.692371551796
 30
0.0
 11
1263.19300867722
 21
3489.956624268471
 31
0.0
  0
LINE
  5
CAC
330
1F
100
AcDbEntity
  8
图层1
100
AcDbLine
 10
1277.208223228402
 20
3601.932347859988
 30
0.0
 11
1170.691187566206
 21
3117.637230929399
 31
0.0
  0
LINE
  5
CAD
330
1F
100
AcDbEntity
  8
图层1
100
AcDbLine
 10
1235.161798978575
 20
3629.926387529476
 30
0.0
 11
1406.150226649422
 21
3613.130021739319
 31
0.0
  0
LINE
  5
CAE
330
1F
100
AcDbEntity
  8
图层1
100
AcDbLine
 10
1375.316286279123
 20
3643.923262335394
 30
0.0
 11
1386.528770158534
 21
3503.95364410323
 31
0.0
  0
LINE
  5
CAF
330
1F
100
AcDbEntity
  8
图层1
100
AcDbLine
 10
1639.662068500883
 20
3384.094734896066
 30
0.0
 11
1626.19053920603
 21
1599.695584833626
 31
0.0
  0
LINE
  5
CB0
330
1F
100
AcDbEntity
  8
图层1
100
AcDbLine
 10
6120.196854754061
 20
1057.873632964246
 30
0.0
 11
5628.745974028077
 21
535.6588501159321
 31
0.0
  0
LINE
  5
CB1
330
1F
100
AcDbEntity
  8
图层1
100
AcDbLine
 10
5613.019692596922
 20
618.1138158288277
 30
0.0
 11
6222.41865980177
 21
370.7489186901121
 31
0.0
  0
LINE
  5
CB2
330
1F
100
AcDbEntity
  8
图层1
100
AcDbLine
 10
5632.974853965222
 20
20.61240591327538
 30
0.0
 11
6203.057922443085
 21
570.3120323037628
 31
0.0
  0
LINE
  5
CB3
330
1F
100
AcDbEntity
  8
图层1
100
AcDbLine
 10
5656.564471260995
 20
311.1678957857412
 30
0.0
 11
6348.527099000989
 21
1057.188951985304
 31
0.0
  0
LINE
  5
CB4
330
1F
100
AcDbEntity
  8
图层1
100
AcDbLine
 10
6439.239013015409
 20
994.8113386727682
 30
0.0
 11
7115.47535932425
 21
288.0546554522926
 31
0.0
  0
LINE
  5
CB5
330
1F
100
AcDbEntity
  8
图层1
100
AcDbLine
 10
6914.785636375601
 20
1498.177453139743
 30
0.0
 11
6112.737867723336
 21
469.4537816635174
 31
0.0
  0
LINE
  5
CB6
330
1F
100
AcDbEntity
  8
图层1
100
AcDbLine
 10
6691.125699219353
 20
1576.623532680217
 30
0.0
 11
6250.785916166322
 21
932.6895561687024
 31
0.0
  0
LINE
  5
CB7
330
1F
100
AcDbEntity
  8
图层1
100
AcDbLine
 10
6596.892906025228
 20
1463.936587838795
 30
0.0
 11
7109.961671385623
 21
1876.94787266493
 31
0.0
  0
LINE
  5
CB8
330
1F
100
AcDbEntity
  8
图层1
100
AcDbLine
 10
6805.267988903856
 20
1377.5551123136
 30
0.0
 11
7174.838920069685
 21
1687.742861190059
 31
0.0
  0
LINE
  5
CB9
330
1F
100
AcDbEntity
  8
图层1
100
AcDbLine
 10
6620.482523321
 20
1554.244428147523
 30
0.0
 11
7060.822306374031
 21
1255.835918650414
 31
0.0
  0
LINE
  5
CBA
330
1F
100
AcDbEntity
  8
图层1
100
AcDbLine
 10
7387.274274105265
 20
842.975608808255
 30
0.0
 11
6946.934491052177
 21
1345.558132652649
 31
0.0
  0
LINE
  5
CBB
330
1F
100
AcDbEntity
  8
图层1
100
AcDbLine
 10
7457.646583120747
 20
928.8303397209865
 30
0.0
 11
7264.77140877396
 21
1178.424184532899
 31
0.0
  0
LINE
  5
CBC
330
1F
100
AcDbEntity
  8
图层1
100
AcDbLine
 10
7788.307525585873
 20
1667.958757029356
 30
0.0
 11
7209.118802384067
 21
1468.264247320218
 31
0.0
  0
LINE
  5
CBD
330
1F
100
AcDbEntity
  8
图层1
100
AcDbLine
 10
7329.782973356022
 20
1530.238390502844
 30
0.0
 11
7040.18880690419
 21
1313.328816849262
 31
0.0
  0
LINE
  5
CBE
330
1F
100
AcDbEntity
  8
图层1
100
AcDbLine
 10
7167.748374447285
 20
1933.070538733042
 30
0.0
 11
7333.230866790692
 21
1447.606199592677
 31
0.0
  0
LINE
  5
CBF
330
1F
100
AcDbEntity
  8
图层1
100
AcDbLine
 10
7267.727136301809
 20
1726.489916428855
 30
0.0
 11
7074.664228567854
 21
1623.19967779116
 31
0.0
  0
LINE
  5
CC0
330
1F
100
AcDbEntity
  8
图层1
100
AcDbLine
 10
7847.069246657659
 20
1422.528544122649
 30
0.0
 11
7319.59385110048
 21
1236.6061145748
 31
0.0
  0
LINE
  5
CC1
330
1F
100
AcDbEntity
  8
图层1
100
AcDbLine
 10
8316.253620654288
 20
1767.270710572081
 30
0.0
 11
7692.246966379172
 21
1336.894547048058
 31
0.0
  0
LINE
  5
CC2
330
1F
100
AcDbEntity
  8
图层1
100
AcDbLine
 10
8233.512374482584
 20
1942.864188770579
 30
0.0
 11
7643.981141871191
 21
1602.006328751745
 31
0.0
  0
LINE
  5
CC3
330
1F
100
AcDbEntity
  8
图层1
100
AcDbLine
 10
9045.550871061569
 20
2400.20773306766
 30
0.0
 11
8571.749003111095
 21
2315.765292638495
 31
0.0
  0
LINE
  5
CC4
330
1F
100
AcDbEntity
  8
图层1
100
AcDbLine
 10
8530.378575174257
 20
2677.281200384799
 30
0.0
 11
8699.308570654192
 21
2071.311558662322
 31
0.0
  0
LINE
  5
CC5
330
1F
100
AcDbEntity
  8
图层1
100
AcDbLine
 10
8657.93775241927
 20
2136.728685628074
 30
0.0
 11
8844.105653880108
 21
2040.324414556618
 31
0.0
  0
LINE
  5
CC6
330
1F
100
AcDbEntity
  8
图层1
100
AcDbLine
 10
8271.811936951419
 20
2136.728685628074
 30
0.0
 11
8726.888986044739
 21
2116.070637900532
 31
0.0
  0
LINE
  5
CC7
330
1F
100
AcDbEntity
  8
图层1
100
AcDbLine
 10
8506.245662920237
 20
2160.829862167525
 30
0.0
 11
8537.273581447372
 21
1806.199776958649
 31
0.0
  0
LINE
  5
CC8
330
1F
100
AcDbEntity
  8
图层1
100
AcDbLine
 10
8651.042746146153
 20
1651.264346487708
 30
0.0
 11
8506.245662920237
 21
1916.376128191395
 31
0.0
  0
LINE
  5
CC9
330
1F
100
AcDbEntity
  8
图层1
100
AcDbLine
 10
8840.65815074352
 20
1978.350271373992
 30
0.0
 11
8206.308596760619
 21
1720.12460226534
 31
0.0
  0
LINE
  5
CCA
330
1F
100
AcDbEntity
  8
图层1
100
AcDbLine
 10
8065.896903010786
 20
2261.187328351055
 30
0.0
 11
8375.415787578971
 21
2383.204846262005
 31
0.0
  0
LINE
  5
CCB
330
1F
100
AcDbEntity
  8
图层1
100
AcDbLine
 10
8272.242826056261
 20
2364.224346698703
 30
0.0
 11
8682.219758548368
 21
2323.551889071333
 31
0.0
  0
LINE
  5
CCC
330
1F
100
AcDbEntity
  8
图层1
100
AcDbLine
 10
8241.508387658747
 20
2559.272278588677
 30
0.0
 11
8378.131091475838
 21
2101.208666284733
 31
0.0
  0
LINE
  5
CCD
330
1F
100
AcDbEntity
  8
图层1
100
AcDbLine
 10
2502.249366080449
 20
4112.019387115379
 30
0.0
 11
3519.49384784134
 21
3544.30819859442
 31
0.0
  0
LINE
  5
CCE
330
1F
100
AcDbEntity
  8
图层1
100
AcDbLine
 10
3344.254293241597
 20
3604.067316868885
 30
0.0
 11
4763.267738405732
 21
3356.494013340304
 31
0.0
  0
LINE
  5
CCF
330
1F
100
AcDbEntity
  8
图层1
100
AcDbLine
 10
4519.088268825436
 20
3388.758861200423
 30
0.0
 11
5703.72458124545
 21
3274.944027358118
 31
0.0
  0
LINE
  5
CD0
330
1F
100
AcDbEntity
  8
图层1
100
AcDbLine
 10
5568.609623040423
 20
3299.845037746103
 30
0.0
 11
6410.121603698413
 21
2973.768513328634
 31
0.0
  0
LINE
  5
CD1
330
1F
100
AcDbEntity
  8
图层1
100
AcDbLine
 10
6215.134526320792
 20
3027.257746391964
 30
0.0
 11
7134.065648229212
 21
2845.73070477654
 31
0.0
  0
LINE
  5
CD2
330
1F
100
AcDbEntity
  8
图层1
100
AcDbLine
 10
7009.521914121579
 20
2859.17705024628
 30
0.0
 11
7578.38413013582
 21
2842.369082151873
 31
0.0
  0
LINE
  5
CD3
330
1F
100
AcDbEntity
  8
图层1
100
AcDbLine
 10
7511.739948592441
 20
2853.130944478185
 30
0.0
 11
7916.126641366922
 21
2717.644311575398
 31
0.0
  0
LINE
  5
CD4
330
1F
100
AcDbEntity
  8
图层1
100
AcDbLine
 10
7827.422420790128
 20
2741.093873703013
 30
0.0
 11
8722.291274401012
 21
2576.946793780987
 31
0.0
  0
LINE
  5
CD5
330
1F
100
AcDbEntity
  8
图层1
100
AcDbLine
 10
8367.474392093894
 20
3012.066994479804
 30
0.0
 11
8568.363167074627
 21
2571.735763860536
 31
0.0
  0
LINE
  5
CD6
330
1F
100
AcDbEntity
  8
图层1
100
AcDbLine
 10
8611.01650487329
 20
2610.900502051974
 30
0.0
 11
9338.912707986661
 21
2209.652068350483
 31
0.0
  0
LINE
  5
CD7
330
1F
100
AcDbEntity
  8
图层1
100
AcDbLine
 10
9514.025415703249
 20
2000.138528563291
 30
0.0
 11
9177.471362193292
 21
2323.221658486936
 31
0.0
  0
LINE
  5
CD8
330
1F
100
AcDbEntity
  8
图层1
100
AcDbLine
 10
9420.103299798446
 20
2062.670742579857
 30
0.0
 11
9894.931774650643
 21
1898.52351762902
 31
0.0
  0
LINE
  5
CD9
330
1F
100
AcDbEntity
  8
图层1
100
AcDbLine
 10
9811.660893954281
 20
1957.530661559916
 30
0.0
 11
10090.81848915387
 21
1420.795594955624
 31
0.0
  0
LINE
  5
CDA
330
1F
100
AcDbEntity
  8
图层1
100
AcDbLine
 10
9080.565417297304
 20
2245.955243230001
 30
0.0
 11
9507.331409845212
 21
1054.497797516936
 31
0.0
  0
LINE
  5
CDB
330
1F
100
AcDbEntity
  8
图层1
100
AcDbLine
 10
8712.285201955472
 20
1372.05736044965
 30
0.0
 11
10023.58729926468
 21
1769.196548047058
 31
0.0
  0
LINE
  5
CDC
330
1F
100
AcDbEntity
  8
图层1
100
AcDbLine
 10
9422.162902883604
 20
1995.664389990857
 30
0.0
 11
9632.497282235187
 21
1273.593100260438
 31
0.0
  0
LINE
  5
CDD
330
1F
100
AcDbEntity
  8
图层1
100
AcDbLine
 10
9432.022613540876
 20
1135.743223012837
 30
0.0
 11
9678.507964308842
 21
1388.468094652654
 31
0.0
  0
LINE
  5
CDE
330
1F
100
AcDbEntity
  8
图层1
100
AcDbLine
 10
10112.32196309348
 20
1483.650208001248
 30
0.0
 11
9573.340969782149
 21
1332.671743391261
 31
0.0
  0
LINE
  5
CDF
330
1F
100
AcDbEntity
  8
图层1
100
AcDbLine
 10
9691.653594688398
 20
1404.878828855658
 30
0.0
 11
9813.253310211237
 21
623.7290410232135
 31
0.0
  0
LINE
  5
CE0
330
1F
100
AcDbEntity
  8
图层1
100
AcDbLine
 10
9741.227698434846
 20
1918.154616402525
 30
0.0
 11
10119.17208508478
 21
2180.725928564153
 31
0.0
  0
LINE
  5
CE1
330
1F
100
AcDbEntity
  8
图层1
100
AcDbLine
 10
9106.80554900499
 20
2779.206572957502
 30
0.0
 11
9126.524189723367
 21
2473.967351868084
 31
0.0
  0
LINE
  5
CE2
330
1F
100
AcDbEntity
  8
图层1
100
AcDbLine
 10
8998.351854159732
 20
2368.938797997708
 30
0.0
 11
9149.529530760077
 21
2536.327996810699
 31
0.0
  0
LINE
  5
CE3
330
1F
100
AcDbEntity
  8
图层1
100
AcDbLine
 10
8911.647918129865
 20
2607.850256267372
 30
0.0
 11
9264.555845646015
 21
2437.863736621487
 31
0.0
  0
LINE
  5
CE4
330
1F
100
AcDbEntity
  8
图层1
100
AcDbLine
 10
9185.680502176461
 20
2441.14588346212
 30
0.0
 11
9603.062560561232
 21
2674.178019087112
 31
0.0
  0
LINE
  5
CE5
330
1F
100
AcDbEntity
  8
图层1
100
AcDbLine
 10
9777.245578198346
 20
2854.695805262517
 30
0.0
 11
9504.468576373302
 21
2605.252935434507
 31
0.0
  0
LINE
  5
CE6
330
1F
100
AcDbEntity
  8
图层1
100
AcDbLine
 10
9655.646252973648
 20
2766.077985595102
 30
0.0
 11
10027.01762928476
 21
2985.981388828926
 31
0.0
  0
LINE
  5
CE7
330
1F
100
AcDbEntity
  8
图层1
100
AcDbLine
 10
9540.619547789569
 20
3166.499320033127
 30
0.0
 11
10203.48623260826
 21
1932.6654732863
 31
0.0
  0
LINE
  5
CE8
330
1F
100
AcDbEntity
  8
图层1
100
AcDbLine
 10
10105.80086240225
 20
2096.007208265282
 30
0.0
 11
11023.21372469317
 21
681.7739188462483
 31
0.0
  0
LINE
  5
CE9
330
1F
100
AcDbEntity
  8
图层1
100
AcDbLine
 10
10190.12788976304
 20
627.8620718509819
 30
0.0
 11
11156.18438512494
 21
1340.486620440662
 31
0.0
  0
LINE
  5
CEA
330
1F
100
AcDbEntity
  8
图层1
100
AcDbLine
 10
8689.81261782814
 20
733.8421596978487
 30
0.0
 11
10164.51262531697
 21
1084.672635297063
 31
0.0
  0
LINE
  5
CEB
330
1F
100
AcDbEntity
  8
图层1
100
AcDbLine
 10
10025.51029801409
 20
1033.601902552463
 30
0.0
 11
10373.14413404872
 21
1143.236571206032
 31
0.0
  0
LINE
  5
CEC
330
1F
100
AcDbEntity
  8
图层1
100
AcDbLine
 10
10292.63968630071
 20
1099.382761756137
 30
0.0
 11
10995.22622838203
 21
1600.047134652083
 31
0.0
  0
LINE
  5
CED
330
1F
100
AcDbEntity
  8
图层1
100
AcDbLine
 10
1225.228321980046
 20
9160.893473104158
 30
0.0
 11
1210.598778215995
 21
8737.203427455874
 31
0.0
  0
LINE
  5
CEE
330
1F
100
AcDbEntity
  8
图层1
100
AcDbLine
 10
866.8109396802623
 20
9657.633366591056
 30
0.0
 11
1137.452620588302
 21
9138.978460741089
 31
0.0
  0
LINE
  5
CEF
330
1F
100
AcDbEntity
  8
图层1
100
AcDbLine
 10
1049.676919196617
 20
9248.553377527821
 30
0.0
 11
1269.116172675859
 21
9073.233423651769
 31
0.0
  0
LINE
  5
CF0
330
1F
100
AcDbEntity
  8
图层1
100
AcDbLine
 10
1195.969624750143
 20
9102.453391792986
 30
0.0
 11
1444.667185161147
 21
9175.503384660396
 31
0.0
  0
LINE
  5
CF1
330
1F
100
AcDbEntity
  8
图层1
100
AcDbLine
 10
896.0696369102237
 20
9109.758492599873
 30
0.0
 11
1108.193923358457
 21
9080.538379429874
 31
0.0
  0
LINE
  5
CF2
330
1F
100
AcDbEntity
  8
图层1
100
AcDbLine
 10
1005.789068500803
 20
9117.063448377978
 30
0.0
 11
1269.116172675859
 21
8956.353406058134
 31
0.0
  0
LINE
  5
CF3
330
1F
100
AcDbEntity
  8
图层1
100
AcDbLine
 10
432.1597514664766
 20
9923.930178644054
 30
0.0
 11
1265.080490299327
 21
10186.54485441775
 31
0.0
  0
LINE
  5
CF4
330
1F
100
AcDbEntity
  8
图层1
100
AcDbLine
 10
588.1989812275873
 20
10003.61784976699
 30
0.0
 11
689.2697971719911
 21
9640.596543045575
 31
0.0
  0
LINE
  5
CF5
330
1F
100
AcDbEntity
  8
图层1
100
AcDbLine
 10
902.0501747298999
 20
10095.70127771079
 30
0.0
 11
1003.120990674303
 21
9753.93002629071
 31
0.0
  0
LINE
  5
CF6
330
1F
100
AcDbEntity
  8
图层1
100
AcDbLine
 10
868.3600328477927
 20
9856.638554399562
 30
0.0
 11
1286.828681148997
 21
9938.096882178308
 31
0.0
  0
LINE
  5
CF7
330
1F
100
AcDbEntity
  8
图层1
100
AcDbLine
 10
1097.099309505838
 20
10070.90961904025
 30
0.0
 11
1148.521084468056
 21
9883.201014754689
 31
0.0
  0
LINE
  5
CF8
330
1F
100
AcDbEntity
  8
图层1
100
AcDbLine
 10
1116.604066864239
 20
10063.8262672731
 30
0.0
 11
962.338351679385
 21
10005.38865145155
 31
0.0
  0
LINE
  5
CF9
330
1F
100
AcDbEntity
  8
图层1
100
AcDbLine
 10
971.2039730703704
 20
10031.95125683546
 30
0.0
 11
1003.120990674303
 21
9920.388575274897
 31
0.0
  0
LINE
  5
CFA
330
1F
100
AcDbEntity
  8
图层1
100
AcDbLine
 10
985.3893575941341
 20
9938.096882178308
 30
0.0
 11
1164.479593270052
 21
9961.117739164247
 31
0.0
  0
LINE
  5
CFB
330
1F
100
AcDbEntity
  8
图层1
100
AcDbLine
 10
871.9062814042567
 20
9686.638257017452
 30
0.0
 11
1040.357771410899
 21
9824.763398933143
 31
0.0
  0
LINE
  5
CFC
330
1F
100
AcDbEntity
  8
图层1
100
AcDbLine
 10
1003.120990674303
 20
9814.138443796887
 30
0.0
 11
1246.045651856054
 21
9737.992521071886
 31
0.0
  0
LINE
  5
CFD
330
1F
100
AcDbEntity
  8
图层1
100
AcDbLine
 10
1251.365024690634
 20
9879.659411385546
 30
0.0
 11
1189.304113761057
 21
9727.367420906803
 31
0.0
  0
LINE
  5
CFE
330
1F
100
AcDbEntity
  8
图层1
100
AcDbLine
 10
1226.540894497711
 20
9847.784255919066
 30
0.0
 11
1336.477331833042
 21
9870.805112905021
 31
0.0
  0
LINE
  5
CFF
330
1F
100
AcDbEntity
  8
图层1
100
AcDbLine
 10
916.2355592536053
 20
9890.284366521786
 30
0.0
 11
870.1331571260247
 21
9555.596466868859
 31
0.0
  0
LINE
  5
D00
330
1F
100
AcDbEntity
  8
图层1
100
AcDbLine
 10
863.0406600132131
 20
9918.617773590295
 30
0.0
 11
923.3284466645576
 21
9833.617697413668
 31
0.0
  0
LINE
  5
D01
330
1F
100
AcDbEntity
  8
图层1
100
AcDbLine
 10
887.8651805042768
 20
9915.076025192369
 30
0.0
 11
529.6843188544166
 21
9787.57583841295
 31
0.0
  0
LINE
  5
D02
330
1F
100
AcDbEntity
  8
图层1
100
AcDbLine
 10
543.8697033781221
 20
9824.763398933143
 30
0.0
 11
579.332969538403
 21
9644.13814641469
 31
0.0
  0
LINE
  5
D03
330
1F
100
AcDbEntity
  8
图层1
100
AcDbLine
 10
556.2819636237121
 20
9679.554905250325
 30
0.0
 11
715.8674419412285
 21
9707.888312318834
 31
0.0
  0
LINE
  5
D04
330
1F
100
AcDbEntity
  8
图层1
100
AcDbLine
 10
925.1015709427896
 20
9815.909245481444
 30
0.0
 11
643.1673950443522
 21
9679.554905250325
 31
0.0
  0
LINE
  5
D05
330
1F
100
AcDbEntity
  8
图层1
100
AcDbLine
 10
770.8354654599109
 20
9892.055168206416
 30
0.0
 11
765.5160926252732
 21
9775.180081592093
 31
0.0
  0
LINE
  5
D06
330
1F
100
AcDbEntity
  8
图层1
100
AcDbLine
 10
783.2477257054428
 20
9808.825893714288
 30
0.0
 11
625.4353716660419
 21
9761.013378057839
 31
0.0
  0
LINE
  5
D09
330
1F
100
AcDbEntity
  8
图层1
100
AcDbLine
 10
342.0695823288419
 20
8133.781216658061
 30
0.0
 11
462.0159950908286
 21
8279.705282454836
 31
0.0
  0
LINE
  5
D0A
330
1F
100
AcDbEntity
  8
图层1
100
AcDbLine
 10
431.4841454516294
 20
8626.002882816413
 30
0.0
 11
440.2076983334276
 21
8214.366180985109
 31
0.0
  0
LINE
  5
D0B
330
1F
100
AcDbEntity
  8
图层1
100
AcDbLine
 10
400.9522958123719
 20
8599.867242228492
 30
0.0
 11
632.1219587526297
 21
8597.689344693927
 31
0.0
  0
LINE
  5
D0C
330
1F
100
AcDbEntity
  8
图层1
100
AcDbLine
 10
592.8669465296565
 20
8632.536865477762
 30
0.0
 11
581.9624078528735
 21
8074.975952820885
 31
0.0
  0
LINE
  5
D0D
330
1F
100
AcDbEntity
  8
图层1
100
AcDbLine
 10
442.3886841284123
 20
8098.933695874196
 30
0.0
 11
691.0050625342422
 21
8092.399713212833
 31
0.0
  0
LINE
  5
D0E
330
1F
100
AcDbEntity
  8
图层1
100
AcDbLine
 10
869.8341887797591
 20
8196.942420593178
 30
0.0
 11
638.6645258395013
 21
8077.153850355481
 31
0.0
  0
LINE
  5
D0F
330
1F
100
AcDbEntity
  8
图层1
100
AcDbLine
 10
760.7919243964728
 20
8179.518660201258
 30
0.0
 11
1105.365433011904
 21
8116.357456266113
 31
0.0
  0
LINE
  5
D10
330
1F
100
AcDbEntity
  8
图层1
100
AcDbLine
 10
564.5156923873013
 20
8351.57836658591
 30
0.0
 11
861.1106358979027
 21
8360.29039181071
 31
0.0
  0
LINE
  5
D11
330
1F
100
AcDbEntity
  8
图层1
100
AcDbLine
 10
575.4202310641424
 20
8610.757164987857
 30
0.0
 11
885.100308748429
 21
8610.757164987857
 31
0.0
  0
LINE
  5
D12
330
1F
100
AcDbEntity
  8
图层1
100
AcDbLine
 10
181.5032848805435
 20
9193.015032506933
 30
0.0
 11
240.9851059509105
 21
9055.306703371044
 31
0.0
  0
LINE
  5
D13
330
1F
100
AcDbEntity
  8
图层1
100
AcDbLine
 10
230.1703358375829
 20
9112.010064766414
 30
0.0
 11
224.7627556319361
 21
8806.891652669881
 31
0.0
  0
LINE
  5
D14
330
1F
100
AcDbEntity
  8
图层1
100
AcDbLine
 10
335.6156129112363
 20
9060.706995879421
 30
0.0
 11
311.2820874326875
 21
8817.692237686591
 31
0.0
  0
LINE
  5
D15
330
1F
100
AcDbEntity
  8
图层1
100
AcDbLine
 10
213.9479855185504
 20
8968.901443122149
 30
0.0
 11
465.3944154633221
 21
8979.702173167671
 31
0.0
  0
LINE
  5
D16
330
1F
100
AcDbEntity
  8
图层1
100
AcDbLine
 10
189.721401720018
 20
9271.664007342804
 30
0.0
 11
189.721401720018
 21
9154.195607895443
 31
0.0
  0
LINE
  5
D17
330
1F
100
AcDbEntity
  8
图层1
100
AcDbLine
 10
178.3383575699421
 20
9252.717444519431
 30
0.0
 11
269.4019301744423
 21
9294.399882730845
 31
0.0
  0
LINE
  5
D18
330
1F
100
AcDbEntity
  8
图层1
100
AcDbLine
 10
237.1500367989078
 20
9288.715913883823
 30
0.0
 11
330.1104581799604
 21
9283.031945036846
 31
0.0
  0
LINE
  5
D19
330
1F
100
AcDbEntity
  8
图层1
100
AcDbLine
 10
303.5506723265875
 20
9300.083851577893
 30
0.0
 11
438.2484018604749
 21
9013.991188031189
 31
0.0
  0
LINE
  5
D1A
330
1F
100
AcDbEntity
  8
图层1
100
AcDbLine
 10
214.3843387968385
 20
9027.253782007559
 30
0.0
 11
451.5282947872195
 21
9034.832407136905
 31
0.0
  0
LINE
  5
D1B
330
1F
100
AcDbEntity
  8
图层1
100
AcDbLine
 10
172.6470306440036
 20
9205.351182489792
 30
0.0
 11
349.082068330726
 21
9218.613776466117
 31
0.0
  0
LINE
  5
D1C
330
1F
100
AcDbEntity
  8
图层1
100
AcDbLine
 10
572.9461313943623
 20
9273.558663625145
 30
0.0
 11
341.4935023300362
 21
9146.616982766097
 31
0.0
  0
LINE
  5
D1D
330
1F
100
AcDbEntity
  8
图层1
100
AcDbLine
 10
570.8935536750372
 20
9067.71362740975
 30
0.0
 11
400.9585405819828
 21
8967.70524555505
 31
0.0
  0
LINE
  5
D1E
330
1F
100
AcDbEntity
  8
图层1
100
AcDbLine
 10
725.655728045794
 20
9473.80805353457
 30
0.0
 11
983.5928154297883
 21
8998.010754286696
 31
0.0
  0
LINE
  5
D1F
330
1F
100
AcDbEntity
  8
图层1
100
AcDbLine
 10
1178.230576005998
 20
9792.576576569036
 30
0.0
 11
1408.856553689927
 21
9398.60438294267
 31
0.0
  0
LINE
  5
D20
330
1F
100
AcDbEntity
  8
图层1
100
AcDbLine
 10
1372.442131054647
 20
9480.429343535337
 30
0.0
 11
1448.305934367819
 21
9234.954316728492
 31
0.0
  0
LINE
  5
D21
330
1F
100
AcDbEntity
  8
图层1
100
AcDbLine
 10
1569.687863549626
 20
9331.93203168699
 30
0.0
 11
1384.580402032415
 21
9250.107071094337
 31
0.0
  0
LINE
  5
D22
330
1F
100
AcDbEntity
  8
图层1
100
AcDbLine
 10
1451.34050211229
 20
9310.718233586367
 30
0.0
 11
1369.407563310176
 21
9119.793180507961
 31
0.0
  0
LINE
  5
D23
330
1F
100
AcDbEntity
  8
图层1
100
AcDbLine
 10
1354.234724587937
 20
9444.062646040102
 30
0.0
 11
2170.291732537627
 21
9731.990421969111
 31
0.0
  0
LINE
  5
D24
330
1F
100
AcDbEntity
  8
图层1
100
AcDbLine
 10
1302.647463230359
 20
9886.523914688943
 30
0.0
 11
1457.409637601174
 21
9574.376536626402
 31
0.0
  0
LINE
  5
D25
330
1F
100
AcDbEntity
  8
图层1
100
AcDbLine
 10
1427.063960156637
 20
9674.384918481132
 30
0.0
 11
1478.651611812356
 21
9428.909891674271
 31
0.0
  0
LINE
  5
D26
330
1F
100
AcDbEntity
  8
图层1
100
AcDbLine
 10
1442.236798878935
 20
9513.765519163184
 30
0.0
 11
1530.238873169933
 21
9383.451483548057
 31
0.0
  0
LINE
  5
D27
330
1F
100
AcDbEntity
  8
图层1
100
AcDbLine
 10
1505.962331214281
 20
9450.12383480372
 30
0.0
 11
1518.100602192049
 21
9331.93203168699
 31
0.0
  0
LINE
  5
D28
330
1F
100
AcDbEntity
  8
图层1
100
AcDbLine
 10
1496.858627980925
 20
9380.420961680639
 30
0.0
 11
1621.275515205286
 21
9204.64866296805
 31
0.0
  0
LINE
  5
D29
330
1F
100
AcDbEntity
  8
图层1
100
AcDbLine
 10
1606.102676483047
 20
9265.259825460095
 30
0.0
 11
1603.068108738576
 21
9013.723609889659
 31
0.0
  0
LINE
  5
D2A
330
1F
100
AcDbEntity
  8
图层1
100
AcDbLine
 10
1184.299711494882
 20
8986.448623025417
 30
0.0
 11
1475.617044067885
 21
8998.570855523873
 31
0.0
  0
LINE
  5
D2B
330
1F
100
AcDbEntity
  8
图层1
100
AcDbLine
 10
1530.238873169933
 20
9074.334772381719
 30
0.0
 11
1414.925689178869
 21
8974.32639052702
 31
0.0
  0
LINE
  5
D2C
330
1F
100
AcDbEntity
  8
图层1
100
AcDbLine
 10
1481.685789258686
 20
9050.090307384895
 30
0.0
 11
1648.586624905352
 21
9050.090307384895
 31
0.0
  0
LINE
  5
D2D
330
1F
100
AcDbEntity
  8
图层1
100
AcDbLine
 10
1248.025243830286
 20
9647.109931616919
 30
0.0
 11
1393.684105265829
 21
9528.918273528999
 31
0.0
  0
LINE
  5
D2E
330
1F
100
AcDbEntity
  8
图层1
100
AcDbLine
 10
1469.547908578942
 20
9562.254304128007
 30
0.0
 11
1342.096453610168
 21
9544.071027894771
 31
0.0
  0
LINE
  5
D2F
330
1F
100
AcDbEntity
  8
图层1
100
AcDbLine
 10
2633.3992858656
 20
9952.825572324137
 30
0.0
 11
2625.754126640096
 21
9704.683465830202
 31
0.0
  0
LINE
  5
D30
330
1F
100
AcDbEntity
  8
图层1
100
AcDbLine
 10
2702.206499491296
 20
9792.487673912786
 30
0.0
 11
2790.126220882755
 21
9467.994138880071
 31
0.0
  0
LINE
  5
D31
330
1F
100
AcDbEntity
  8
图层1
100
AcDbLine
 10
2774.83590243169
 20
9597.791581898933
 30
0.0
 11
2744.254875231594
 21
9162.588569753619
 31
0.0
  0
LINE
  5
D32
330
1F
100
AcDbEntity
  8
图层1
100
AcDbLine
 10
2939.207996674349
 20
9655.055044531421
 30
0.0
 11
2920.094708312537
 21
9265.663005532456
 31
0.0
  0
LINE
  5
D33
330
1F
100
AcDbEntity
  8
图层1
100
AcDbLine
 10
2908.626969474253
 20
9364.919848130032
 30
0.0
 11
3008.014820002021
 21
9193.12917017489
 31
0.0
  0
LINE
  5
D34
330
1F
100
AcDbEntity
  8
图层1
100
AcDbLine
 10
3004.19224038924
 20
9273.298191894957
 30
0.0
 11
2809.239118946485
 21
9021.338492219735
 31
0.0
  0
LINE
  5
D35
330
1F
100
AcDbEntity
  8
图层1
100
AcDbLine
 10
2732.787136393368
 20
9250.392777836173
 30
0.0
 11
2813.062088857348
 21
9051.879092641049
 31
0.0
  0
LINE
  5
D36
330
1F
100
AcDbEntity
  8
图层1
100
AcDbLine
 10
2782.481061657194
 20
9078.602099881077
 30
0.0
 11
2954.498315125415
 21
9002.250671342283
 31
0.0
  0
LINE
  5
D37
330
1F
100
AcDbEntity
  8
图层1
100
AcDbLine
 10
3134.160727819022
 20
9044.243906278518
 30
0.0
 11
2878.046332572239
 21
9013.70345088603
 31
0.0
  0
LINE
  5
D38
330
1F
100
AcDbEntity
  8
图层1
100
AcDbLine
 10
2927.481880492474
 20
9039.820092700733
 30
0.0
 11
2931.245915389912
 21
8960.876709394758
 31
0.0
  0
LINE
  5
D39
330
1F
100
AcDbEntity
  8
图层1
100
AcDbLine
 10
2859.726910550207
 20
8992.830035386059
 30
0.0
 11
3206.029830056419
 21
8979.672732320649
 31
0.0
  0
LINE
  5
D3A
330
1F
100
AcDbEntity
  8
图层1
100
AcDbLine
 10
2956.294857289702
 20
9229.297468267649
 30
0.0
 11
3102.635179211678
 21
9220.3496262092
 31
0.0
  0
LINE
  5
D3B
330
1F
100
AcDbEntity
  8
图层1
100
AcDbLine
 10
3045.890909029987
 20
9211.401784150735
 30
0.0
 11
3912.137859362354
 21
9561.18192514865
 31
0.0
  0
LINE
  5
D3C
330
1F
100
AcDbEntity
  8
图层1
100
AcDbLine
 10
3924.695483053221
 20
9437.221057287583
 30
0.0
 11
4014.805947692193
 21
9269.794296014579
 31
0.0
  0
LINE
  5
D3D
330
1F
100
AcDbEntity
  8
图层1
100
AcDbLine
 10
4213.887252161746
 20
9514.655850984773
 30
0.0
 11
4243.225570204494
 21
9324.208087697019
 31
0.0
  0
LINE
  5
D3E
330
1F
100
AcDbEntity
  8
图层1
100
AcDbLine
 10
3773.81248152
 20
9389.085852544425
 30
0.0
 11
3907.930618372165
 21
9148.409973857495
 31
0.0
  0
LINE
  5
D3F
330
1F
100
AcDbEntity
  8
图层1
100
AcDbLine
 10
5075.179150340148
 20
8253.660139839999
 30
0.0
 11
5420.993806920481
 21
8380.203861663662
 31
0.0
  0
LINE
  5
D40
330
1F
100
AcDbEntity
  8
图层1
100
AcDbLine
 10
5542.424913663243
 20
8461.930057641488
 30
0.0
 11
5339.160003836442
 21
8343.295191531643
 31
0.0
  0
LINE
  5
D41
330
1F
100
AcDbEntity
  8
图层1
100
AcDbLine
 10
5745.689823490045
 20
8746.65350425912
 30
0.0
 11
5621.619130682259
 21
8609.564448112029
 31
0.0
  0
LINE
  5
D42
330
1F
100
AcDbEntity
  8
图层1
100
AcDbLine
 10
5669.135582834076
 20
8635.927638891827
 30
0.0
 11
5555.624014882779
 21
8612.200781692873
 31
0.0
  0
LINE
  5
D43
330
1F
100
AcDbEntity
  8
图层1
100
AcDbLine
 10
5597.860904606351
 20
8646.472973215269
 30
0.0
 11
5526.586226378626
 21
8554.201442913987
 31
0.0
  0
LINE
  5
D44
330
1F
100
AcDbEntity
  8
图层1
100
AcDbLine
 10
5566.183139739093
 20
8580.564778722594
 30
0.0
 11
5439.472470568261
 21
8554.201442913987
 31
0.0
  0
LINE
  5
D45
330
1F
100
AcDbEntity
  8
图层1
100
AcDbLine
 10
5492.268485148205
 20
8580.564778722594
 30
0.0
 11
5289.003575321462
 21
8419.748720347785
 31
0.0
  0
LINE
  5
D46
330
1F
100
AcDbEntity
  8
图层1
100
AcDbLine
 10
2883.092106437138
 20
9001.24736208315
 30
0.0
 11
2885.171224427527
 21
8772.864269766962
 31
0.0
  0
LINE
  5
D47
330
1F
100
AcDbEntity
  8
图层1
100
AcDbLine
 10
2864.381605716773
 20
8806.083552179602
 30
0.0
 11
3211.56620863575
 21
8797.778767833609
 31
0.0
  0
LINE
  5
D48
330
1F
100
AcDbEntity
  8
图层1
100
AcDbLine
 10
3197.013553597908
 20
8997.094897395761
 30
0.0
 11
3186.61874424253
 21
8774.940502110672
 31
0.0
  0
LINE
  5
D49
330
1F
100
AcDbEntity
  8
图层1
100
AcDbLine
 10
3039.013466171456
 20
8822.693265900282
 30
0.0
 11
3041.092193863705
 21
8683.587149161139
 31
0.0
  0
LINE
  5
D4A
330
1F
100
AcDbEntity
  8
图层1
100
AcDbLine
 10
821.7654648133915
 20
8872.684114177745
 30
0.0
 11
737.5496724116395
 21
6469.787879418877
 31
0.0
  0
LINE
  5
D4B
330
1F
100
AcDbEntity
  8
图层1
100
AcDbLine
 10
756.3554058690218
 20
6699.856496483485
 30
0.0
 11
525.9835122496018
 21
5774.887010785697
 31
0.0
  0
LINE
  5
D4C
330
1F
100
AcDbEntity
  8
图层1
100
AcDbLine
 10
11249.46524124785
 20
6115.185639740161
 30
0.0
 11
11292.50146148476
 21
5932.523167626063
 31
0.0
  0
LINE
  5
D4D
330
1F
100
AcDbEntity
  8
图层1
100
AcDbLine
 10
11174.15214855684
 20
6022.063515509309
 30
0.0
 11
11299.67396970856
 21
6029.226778146874
 31
0.0
  0
LINE
  5
D4E
330
1F
100
AcDbEntity
  8
图层1
100
AcDbLine
 10
11192.0840045634
 20
6050.716566059597
 30
0.0
 11
11195.67006352625
 21
5871.635725264267
 31
0.0
  0
LINE
  5
D4F
330
1F
100
AcDbEntity
  8
图层1
100
AcDbLine
 10
11059.38928488991
 20
6029.226778146874
 30
0.0
 11
11127.52986935712
 21
5857.309199989138
 31
0.0
  0
LINE
  5
D52
330
1F
100
AcDbEntity
  8
图层1
100
AcDbLine
 10
731.9477237510158
 20
7523.926398332104
 30
0.0
 11
1141.131960797532
 21
7509.955628710731
 31
0.0
  0
LINE
  5
D53
330
1F
100
AcDbEntity
  8
图层1
100
AcDbLine
 10
962.7696310823097
 20
7544.882480249803
 30
0.0
 11
948.7805665039353
 21
7394.696743077007
 31
0.0
  0
LINE
  5
D54
330
1F
100
AcDbEntity
  8
图层1
100
AcDbLine
 10
840.364340276575
 20
7415.652824994676
 30
0.0
 11
1053.699721735787
 21
7415.652824994676
 31
0.0
  0
LINE
  5
D55
330
1F
100
AcDbEntity
  8
图层1
100
AcDbLine
 10
1015.229208698206
 20
7443.594364237481
 30
0.0
 11
1022.223740987364
 21
7331.828207266288
 31
0.0
  0
LINE
  5
D56
330
1F
100
AcDbEntity
  8
图层1
100
AcDbLine
 10
861.3479371440492
 20
7440.101780603761
 30
0.0
 11
868.3424694332655
 21
7314.364708982354
 31
0.0
  0
LINE
  5
D57
330
1F
100
AcDbEntity
  8
图层1
100
AcDbLine
 10
847.3588725657331
 20
7352.784434212783
 30
0.0
 11
1043.207728152979
 21
7359.769746509065
 31
0.0
  0
LINE
  5
D59
330
1F
100
AcDbEntity
  8
图层1
100
AcDbLine
 10
662.002010561236
 20
7803.341790760072
 30
0.0
 11
668.9965428503941
 21
7537.897167953521
 31
0.0
  0
LINE
  5
D5A
330
1F
100
AcDbEntity
  8
图层1
100
AcDbLine
 10
620.0344265281468
 20
7607.751016060536
 30
0.0
 11
784.4073013669707
 21
7544.882480249803
 31
0.0
  0
LINE
  5
D71
330
1F
100
AcDbEntity
  8
图层1
100
AcDbLine
 10
9861.45941910957
 20
1968.154456465801
 30
0.0
 11
9315.461646517217
 21
3077.595358537428
 31
0.0
  0
LINE
  5
D72
330
1F
100
AcDbEntity
  8
图层1
100
AcDbLine
 10
9572.905787398109
 20
2445.674407835662
 30
0.0
 11
10140.52373306267
 21
2811.197316379946
 31
0.0
  0
LINE
  5
D73
330
1F
100
AcDbEntity
  8
图层1
100
AcDbLine
 10
9693.967672136206
 20
3248.8511702671
 30
0.0
 11
10413.85612908722
 21
2457.746025281818
 31
0.0
  0
LINE
  5
D74
330
1F
100
AcDbEntity
  8
图层1
100
AcDbLine
 10
9961.002608281971
 20
2727.241737642476
 30
0.0
 11
10399.04438290483
 21
1976.826743798538
 31
0.0
  0
LINE
  5
D76
330
1F
100
AcDbEntity
  8
图层1
100
AcDbLine
 10
9777.630412127068
 20
3144.978060870174
 30
0.0
 11
8840.144518440999
 21
4454.201505134352
 31
0.0
  0
LINE
  5
D77
330
1F
100
AcDbEntity
  8
图层1
100
AcDbLine
 10
9882.042570124207
 20
1741.244276672839
 30
0.0
 11
10616.15622200537
 21
2172.684226466827
 31
0.0
  0
LINE
  5
D78
330
1F
100
AcDbEntity
  8
图层1
100
AcDbLine
 10
10481.52367225452
 20
1271.264807857156
 30
0.0
 11
11076.02222881239
 21
425.2201417785737
 31
0.0
  0
LINE
  5
D79
330
1F
100
AcDbEntity
  8
图层1
100
AcDbLine
 10
10321.75202174228
 20
1167.364578074038
 30
0.0
 11
10942.26004382945
 21
239.6840689619176
 31
0.0
  0
LINE
  5
D7A
330
1F
100
AcDbEntity
  8
图层1
100
AcDbLine
 10
10251.1837830795
 20
958.6194008851498
 30
0.0
 11
10735.07732165291
 21
229.0943558247428
 31
0.0
  0
LINE
  5
D7B
330
1F
100
AcDbEntity
  8
图层1
100
AcDbLine
 10
10342.14236549445
 20
229.0943558247428
 30
0.0
 11
10966.31060318387
 21
337.2916440118034
 31
0.0
  0
LINE
  5
D7D
330
1F
100
AcDbEntity
  8
图层1
100
AcDbLine
 10
1675.007854932455
 20
3034.507011109721
 30
0.0
 11
627.5226859165717
 21
3039.585194646648
 31
0.0
  0
LINE
  5
D7E
330
1F
100
AcDbEntity
  8
图层1
100
AcDbLine
 10
1598.509817203217
 20
3053.344367244446
 30
0.0
 11
2280.622491738469
 21
2816.841112248561
 31
0.0
  0
LINE
  5
D7F
330
1F
100
AcDbEntity
  8
图层1
100
AcDbLine
 10
2150.003767670541
 20
2852.062807344138
 30
0.0
 11
3420.001397422167
 21
2790.038774253267
 31
0.0
  0
LINE
  5
D80
330
1F
100
AcDbEntity
  8
图层1
100
AcDbLine
 10
2913.275419871208
 20
2804.960207678324
 30
0.0
 11
2912.46945429023
 21
3039.759519267832
 31
0.0
  0
LINE
  5
D81
330
1F
100
AcDbEntity
  8
图层1
100
AcDbLine
 10
3069.316601122848
 20
2825.731957987421
 30
0.0
 11
3061.928648346629
 21
2518.31077855692
 31
0.0
  0
LINE
  5
D82
330
1F
100
AcDbEntity
  8
图层1
100
AcDbLine
 10
2371.968249870815
 20
2823.887336642108
 30
0.0
 11
2421.220357683081
 21
3266.573835021996
 31
0.0
  0
LINE
  5
D83
330
1F
100
AcDbEntity
  8
图层1
100
AcDbLine
 10
3438.63969299372
 20
2126.192778176836
 30
0.0
 11
678.1954788206506
 21
2176.020033964543
 31
0.0
  0
LINE
  5
D84
330
1F
100
AcDbEntity
  8
图层1
100
AcDbLine
 10
2599.981181760669
 20
4068.590802115887
 30
0.0
 11
1218.298188877759
 21
4512.597497689454
 31
0.0
  0
LINE
  5
D85
330
1F
100
AcDbEntity
  8
图层1
100
AcDbLine
 10
1387.983020887246
 20
4445.401447426168
 30
0.0
 11
341.9895712178562
 21
5148.561126274731
 31
0.0
  0
LINE
  5
D86
330
1F
100
AcDbEntity
  8
图层1
100
AcDbLine
 10
1261.726658707311
 20
4024.127291578192
 30
0.0
 11
521.1758202268987
 21
4269.440901327286
 31
0.0
  0
LINE
  5
D87
330
1F
100
AcDbEntity
  8
图层1
100
AcDbLine
 10
810.8972238600266
 20
4915.267938804337
 30
0.0
 11
592.0988398645435
 21
4115.614216055274
 31
0.0
  0
LINE
  5
D88
330
1F
100
AcDbEntity
  8
图层1
100
AcDbLine
 10
663.0686952745321
 20
4328.297795418334
 30
0.0
 11
189.3892580351106
 21
3300.834859326545
 31
0.0
  0
LINE
  5
D89
330
1F
100
AcDbEntity
  8
图层1
100
AcDbLine
 10
216.0637915304991
 20
3408.721205759973
 30
0.0
 11
132.8920465520945
 21
2877.578739856811
 31
0.0
  0
LINE
  5
DA4
330
1F
100
AcDbEntity
  8
图层1
100
AcDbLine
 10
3231.803555531953
 20
949.0992751700732
 30
0.0
 11
1841.043789984718
 21
982.4115210454229
 31
0.0
  0
LINE
  5
DA5
330
1F
100
AcDbEntity
  8
图层1
100
AcDbLine
 10
1874.365490458325
 20
1005.100697158898
 30
0.0
 11
1862.248295578059
 21
769.1331785612756
 31
0.0
  0
LINE
  5
DA6
330
1F
100
AcDbEntity
  8
图层1
100
AcDbLine
 10
1644.145032502537
 20
940.0583246201177
 30
0.0
 11
1968.270823544766
 21
747.9565078342321
 31
0.0
  0
LINE
  5
DA7
330
1F
100
AcDbEntity
  8
图层1
100
AcDbLine
 10
1909.201157270292
 20
999.050240526737
 30
0.0
 11
1695.641744700436
 21
885.6042149304457
 31
0.0
  0
LINE
  5
DA8
330
1F
100
AcDbEntity
  8
图层1
100
AcDbLine
 10
1894.711730524957
 20
774.1050559855839
 30
0.0
 11
3207.497350920634
 21
774.0326866128643
 31
0.0
  0
LINE
  5
DA9
330
1F
100
AcDbEntity
  8
图层1
100
AcDbLine
 10
3189.067864833692
 20
970.107567456861
 30
0.0
 11
3252.056904650295
 21
820.1003607405045
 31
0.0
  0
LINE
  5
DAA
330
1F
100
AcDbEntity
  8
图层1
100
AcDbLine
 10
3256.902065290721
 20
870.9091714668948
 30
0.0
 11
3177.6774050197
 21
758.5466560577961
 31
0.0
  0
LINE
  5
DAB
330
1F
100
AcDbEntity
  8
图层1
100
AcDbLine
 10
3198.758186114604
 20
851.5534823902463
 30
0.0
 11
3431.334093117099
 21
853.972997910624
 31
0.0
  0
LINE
  5
DAD
330
1F
100
AcDbEntity
  8
图层1
100
AcDbLine
 10
2737.757192426479
 20
2183.282206245746
 30
0.0
 11
2708.468442242653
 21
930.3981010813776
 31
0.0
  0
LINE
  5
DAE
330
1F
100
AcDbEntity
  8
图层1
100
AcDbLine
 10
2889.08279200754
 20
915.7731065296584
 30
0.0
 11
2884.201333643579
 21
1218.025169363759
 31
0.0
  0
LINE
  5
DAF
330
1F
100
AcDbEntity
  8
图层1
100
AcDbLine
 10
3040.408001290519
 20
1305.775861818042
 30
0.0
 11
2825.623442977901
 21
1154.649757886601
 31
0.0
  0
LINE
  5
DB0
330
1F
100
AcDbEntity
  8
图层1
100
AcDbLine
 10
2933.015917283251
 20
1281.400725869714
 30
0.0
 11
3264.955476331119
 21
1286.27572405362
 31
0.0
  0
LINE
  5
DB1
330
1F
100
AcDbEntity
  8
图层1
100
AcDbLine
 10
3094.104433592294
 20
1208.275172995946
 30
0.0
 11
3108.748808684178
 21
915.7731065296584
 31
0.0
  0
LINE
  5
DB2
330
1F
100
AcDbEntity
  8
图层1
100
AcDbLine
 10
1975.243108842116
 20
1944.115642311624
 30
0.0
 11
2756.210486697558
 21
1944.115642311624
 31
0.0
  0
LINE
  5
DB3
330
1F
100
AcDbEntity
  8
图层1
100
AcDbLine
 10
2521.799007720606
 20
947.9152600224233
 30
0.0
 11
2529.310294697005
 21
1588.48887555226
 31
0.0
  0
LINE
  5
DB4
330
1F
100
AcDbEntity
  8
图层1
100
AcDbLine
 10
2270.712042327971
 20
1017.907175549863
 30
0.0
 11
2280.825056453528
 21
576.8838674827175
 31
0.0
  0
LINE
  5
DB5
330
1F
100
AcDbEntity
  8
图层1
100
AcDbLine
 10
2216.775576693414
 20
933.7423202496765
 30
0.0
 11
2216.775576693414
 21
1081.872274140017
 31
0.0
  0
LINE
  5
DB6
330
1F
100
AcDbEntity
  8
图层1
100
AcDbLine
 10
2159.468106350223
 20
1105.438439425202
 30
0.0
 11
2237.001604944469
 21
1038.106642202318
 31
0.0
  0
LINE
  5
DB7
330
1F
100
AcDbEntity
  8
图层1
100
AcDbLine
 10
2169.581120475779
 20
1061.672807487547
 30
0.0
 11
2172.952125184356
 21
1317.53349190571
 31
0.0
  0
LINE
  5
DB8
330
1F
100
AcDbEntity
  8
图层1
100
AcDbLine
 10
1906.640801720032
 20
1186.236596092688
 30
0.0
 11
2193.178153435527
 21
1196.336401933328
 31
0.0
  0
LINE
  5
DB9
330
1F
100
AcDbEntity
  8
图层1
100
AcDbLine
 10
1542.569561112091
 20
1246.835141078923
 30
0.0
 11
2004.400718863589
 21
1179.503343855996
 31
0.0
  0
LINE
  5
DBA
330
1F
100
AcDbEntity
  8
图层1
100
AcDbLine
 10
1053.769975394186
 20
1246.835141078923
 30
0.0
 11
1680.781534757932
 21
1233.368781634305
 31
0.0
  0
LINE
  5
DBB
330
1F
100
AcDbEntity
  8
图层1
100
AcDbLine
 10
1545.94056582061
 20
886.6101347080302
 30
0.0
 11
1650.517039318687
 21
1598.72229653673
 31
0.0
  0
LINE
  5
DBC
330
1F
100
AcDbEntity
  8
图层1
100
AcDbLine
 10
1623.961156446372
 20
1686.572913836285
 30
0.0
 11
1643.878068600666
 21
1436.281335453143
 31
0.0
  0
LINE
  5
DBD
330
1F
100
AcDbEntity
  8
图层1
100
AcDbLine
 10
1511.098263940833
 20
1515.844281805494
 30
0.0
 11
1663.794980754903
 21
1510.871534208364
 31
0.0
  0
LINE
  5
DBE
330
1F
100
AcDbEntity
  8
图层1
100
AcDbLine
 10
1793.64676905214
 20
906.8947332678408
 30
0.0
 11
470.6259712249751
 21
948.3649943405225
 31
0.0
  0
LINE
  5
DBF
330
1F
100
AcDbEntity
  8
图层1
100
AcDbLine
 10
706.2028803350416
 20
923.77304033173
 30
0.0
 11
713.2262946837593
 21
2280.674558552016
 31
0.0
  0
LINE
  5
DC0
330
1F
100
AcDbEntity
  8
图层1
100
AcDbLine
 10
685.192743196619
 20
1669.022833356929
 30
0.0
 11
1643.679016568525
 21
1633.771262327956
 31
0.0
  0
LINE
  5
DC1
330
1F
100
AcDbEntity
  8
图层1
100
AcDbLine
 10
1311.596998713388
 20
1664.969713399613
 30
0.0
 11
1314.709235780117
 21
1210.777790020457
 31
0.0
  0
LINE
  5
DC2
330
1F
100
AcDbEntity
  8
图层1
100
AcDbLine
 10
1287.42739843781
 20
762.1277072613493
 30
0.0
 11
1316.740737401998
 21
1297.168837446666
 31
0.0
  0
LINE
  5
DC3
330
1F
100
AcDbEntity
  8
图层1
100
AcDbLine
 10
1158.724257455267
 20
1673.837209501206
 30
0.0
 11
1164.138472728724
 21
1218.589476436221
 31
0.0
  0
LINE
  5
DC4
330
1F
100
AcDbEntity
  8
图层1
100
AcDbLine
 10
1175.532835523716
 20
1401.928362887503
 30
0.0
 11
952.7042333252042
 21
1395.606267307307
 31
0.0
  0
LINE
  5
DC5
330
1F
100
AcDbEntity
  8
图层1
100
AcDbLine
 10
824.830866107893
 20
1432.274044597555
 30
0.0
 11
1014.741726368608
 21
1388.019810622577
 31
0.0
  0
LINE
  5
DC6
330
1F
100
AcDbEntity
  8
图层1
100
AcDbLine
 10
837.491355946347
 20
1604.233246021763
 30
0.0
 11
840.951738920355
 21
1079.070462694934
 31
0.0
  0
LINE
  5
DC7
330
1F
100
AcDbEntity
  8
图层1
100
AcDbLine
 10
823.2813826422219
 20
997.9298930236009
 30
0.0
 11
844.0144081281626
 21
1149.242213938113
 31
0.0
  0
LINE
  5
DC8
330
1F
100
AcDbEntity
  8
图层1
100
AcDbLine
 10
686.1232138721401
 20
1133.314570677864
 30
0.0
 11
1102.382384616941
 21
1106.237693158536
 31
0.0
  0
LINE
  5
DC9
330
1F
100
AcDbEntity
  8
图层1
100
AcDbLine
 10
1070.485272216262
 20
1426.382829591083
 30
0.0
 11
1073.133444839566
 21
917.2164331770519
 31
0.0
  0
LINE
  5
DCA
330
1F
100
AcDbEntity
  8
图层1
100
AcDbLine
 10
1314.048461093161
 20
975.9758679124834
 30
0.0
 11
903.3444032367563
 21
980.4462357360216
 31
0.0
  0
LINE
  5
DCB
330
1F
100
AcDbEntity
  8
图层1
100
AcDbLine
 10
885.4390875011462
 20
1022.915455203726
 30
0.0
 11
939.1550347079768
 21
965.9172502518968
 31
0.0
  0
LINE
  5
DCC
330
1F
100
AcDbEntity
  8
图层1
100
AcDbLine
 10
923.4876882902476
 20
998.3279970878111
 30
0.0
 11
913.416045763531
 21
922.3304388283331
 31
0.0
  0
LINE
  5
DCD
330
1F
100
AcDbEntity
  8
图层1
100
AcDbLine
 10
691.8371780880855
 20
1005.033693851936
 30
0.0
 11
912.2970611045033
 21
1006.151285807825
 31
0.0
  0
LINE
  5
DCE
330
1F
100
AcDbEntity
  8
图层1
100
AcDbLine
 10
1081.127920866479
 20
1282.543407808528
 30
0.0
 11
680.5177525286575
 21
1295.385708313818
 31
0.0
  0
LINE
  5
DCF
330
1F
100
AcDbEntity
  8
图层1
100
AcDbLine
 10
690.6604293099966
 20
1598.90039190681
 30
0.0
 11
1005.416333813221
 21
1582.310112045704
 31
0.0
  0
LINE
  5
DD0
330
1F
100
AcDbEntity
  8
图层1
100
AcDbLine
 10
984.4327369456889
 20
1601.519902146513
 30
0.0
 11
975.6892788606942
 21
1436.490757044657
 31
0.0
  0
LINE
  5
DD1
330
1F
100
AcDbEntity
  8
图层1
100
AcDbLine
 10
990.5530014859408
 20
1464.432151258665
 30
0.0
 11
730.879087547249
 21
1470.5443901609
 31
0.0
  0
LINE
  5
DD2
330
1F
100
AcDbEntity
  8
图层1
100
AcDbLine
 10
973.9407433629397
 20
1488.880961838881
 30
0.0
 11
991.4272692348472
 21
1376.242021531293
 31
0.0
  0
LINE
  5
DD3
330
1F
100
AcDbEntity
  8
图层1
100
AcDbLine
 10
544.8368620753766
 20
612.9715295610122
 30
0.0
 11
612.9969614477608
 21
979.5035485165472
 31
0.0
  0
LINE
  5
DD4
330
1F
100
AcDbEntity
  8
图层1
100
AcDbLine
 10
758.0555444021022
 20
560.6098954409726
 30
0.0
 11
747.5694052908233
 21
958.5589238742732
 31
0.0
  0
LINE
  5
DD5
330
1F
100
AcDbEntity
  8
图层1
100
AcDbLine
 10
1963.003750655801
 20
961.7304137382062
 30
0.0
 11
1945.230355678768
 21
1226.115166052467
 31
0.0
  0
LINE
  5
DD6
330
1F
100
AcDbEntity
  8
图层1
100
AcDbLine
 10
1965.677682953888
 20
1323.930132290658
 30
0.0
 11
1941.737187664259
 21
1153.577995032455
 31
0.0
  0
LINE
  5
DD7
330
1F
100
AcDbEntity
  8
图层1
100
AcDbLine
 10
1962.693073366537
 20
1790.678069318009
 30
0.0
 11
1962.693073366537
 21
1260.195484468485
 31
0.0
  0
LINE
  5
DD8
330
1F
100
AcDbEntity
  8
图层1
100
AcDbLine
 10
1947.730215023215
 20
1463.422605760996
 30
0.0
 11
2826.037442451519
 21
1436.524983842163
 31
0.0
  0
LINE
  5
DD9
330
1F
100
AcDbEntity
  8
图层1
100
AcDbLine
 10
1940.248590702483
 20
1302.036439161607
 30
0.0
 11
3135.443709267829
 21
1184.003101788116
 31
0.0
  0
LINE
  5
DDA
330
1F
100
AcDbEntity
  8
图层1
100
AcDbLine
 10
1773.303651370284
 20
2077.907178564977
 30
0.0
 11
2034.871291700752
 21
2042.966549289621
 31
0.0
  0
LINE
  5
DDB
330
1F
100
AcDbEntity
  8
图层1
100
AcDbLine
 10
1999.884579523235
 20
2074.579492680224
 30
0.0
 11
2004.882737019799
 21
1768.432971399282
 31
0.0
  0
LINE
  5
DDC
330
1F
100
AcDbEntity
  8
图层1
100
AcDbLine
 10
2023.208794109525
 20
1815.020428756868
 30
0.0
 11
1946.571419957852
 21
1750.130626518822
 31
0.0
  0
LINE
  5
DDD
330
1F
100
AcDbEntity
  8
图层1
100
AcDbLine
 10
1738.316939192767
 20
1786.735171250945
 30
0.0
 11
1994.886422026787
 21
1761.777599629776
 31
0.0
  0
LINE
  5
DDE
330
1F
100
AcDbEntity
  8
图层1
100
AcDbLine
 10
1793.296281356366
 20
2097.873293873422
 30
0.0
 11
1763.018906079758
 21
1555.853232659171
 31
0.0
  0
LINE
  5
DDF
330
1F
100
AcDbEntity
  8
图层1
100
AcDbLine
 10
1764.354506185454
 20
1934.716905704646
 30
0.0
 11
1937.547337537283
 21
1903.268860063025
 31
0.0
  0
LINE
  5
DE0
330
1F
100
AcDbEntity
  8
图层1
100
AcDbLine
 10
1911.306034935348
 20
1928.165229529321
 30
0.0
 11
1923.114504016821
 21
1785.33839884929
 31
0.0
  0
LINE
  5
DE1
330
1F
100
AcDbEntity
  8
图层1
100
AcDbLine
 10
1912.61782685679
 20
1822.027930460001
 30
0.0
 11
1974.284927001224
 21
1743.407671327125
 31
0.0
  0
LINE
  5
DE2
330
1F
100
AcDbEntity
  8
图层1
100
AcDbLine
 10
1766.978480326362
 20
1849.54497039643
 30
0.0
 11
1933.611181176851
 21
1856.096646571769
 31
0.0
  0
LINE
  5
DE3
330
1F
100
AcDbEntity
  8
图层1
100
AcDbLine
 10
700.2945476642357
 20
2109.970001302489
 30
0.0
 11
908.9053705966229
 21
3204.280193386401
 31
0.0
  0
LINE
  5
DE4
330
1F
100
AcDbEntity
  8
图层1
100
AcDbLine
 10
514.6106158501364
 20
3134.878690115967
 30
0.0
 11
306.8810860324896
 21
2155.911210313939
 31
0.0
  0
LINE
  5
DE5
330
1F
100
AcDbEntity
  8
图层1
100
AcDbLine
 10
169.4973249594344
 20
1805.238671081189
 30
0.0
 11
327.9485969920073
 21
2232.626806177058
 31
0.0
  0
LINE
  5
DE6
330
1F
100
AcDbEntity
  8
图层1
100
AcDbLine
 10
331.5077253857757
 20
1849.373546351305
 30
0.0
 11
324.9003688139504
 21
1367.653850904263
 31
0.0
  0
LINE
  5
DE7
330
1F
100
AcDbEntity
  8
图层1
100
AcDbLine
 10
176.2291866258032
 20
1879.068628851111
 30
0.0
 11
364.545679139091
 21
1799.881742184943
 31
0.0
  0
LINE
  5
DE8
330
1F
100
AcDbEntity
  8
图层1
100
AcDbLine
 10
594.9468451162114
 20
1825.336907629161
 30
0.0
 11
292.3904883928493
 21
1815.589956866233
 31
0.0
  0
LINE
  5
DE9
330
1F
100
AcDbEntity
  8
图层1
100
AcDbLine
 10
284.3788392494328
 20
2171.383608161549
 30
0.0
 11
640.6144551580085
 21
2070.664295114552
 31
0.0
  0
LINE
  5
DEA
330
1F
100
AcDbEntity
  8
图层1
100
AcDbLine
 10
612.9614443204494
 20
2096.656357187491
 30
0.0
 11
630.8546608148621
 21
1789.625160208267
 31
0.0
  0
LINE
  5
DEB
330
1F
100
AcDbEntity
  8
图层1
100
AcDbLine
 10
536.5090714691335
 20
1836.735736458247
 30
0.0
 11
734.9600445037371
 21
1763.633098135343
 31
0.0
  0
LINE
  5
DEC
330
1F
100
AcDbEntity
  8
图层1
100
AcDbLine
 10
508.8560606316327
 20
1926.083486091132
 30
0.0
 11
647.1211148194282
 21
1904.964971914048
 31
0.0
  0
LINE
  5
DED
330
1F
100
AcDbEntity
  8
图层1
100
AcDbLine
 10
500.7226384802501
 20
2088.533874046891
 30
0.0
 11
518.6158549746627
 21
1895.217876122308
 31
0.0
  0
LINE
  5
DEE
330
1F
100
AcDbEntity
  8
图层1
100
AcDbLine
 10
515.3627202930523
 20
2072.288762736939
 30
0.0
 11
399.8707797712426
 21
2057.668264078126
 31
0.0
  0
LINE
  5
DEF
330
1F
100
AcDbEntity
  8
图层1
100
AcDbLine
 10
419.3903684574191
 20
2156.763109502736
 30
0.0
 11
411.2573366042355
 21
2028.427266760457
 31
0.0
  0
LINE
  5
DF6
330
1F
100
AcDbEntity
  8
图层1
100
AcDbLine
 10
334.8955129126565
 20
1405.979307412786
 30
0.0
 11
285.0731795731712
 21
1315.513095651219
 31
0.0
  0
LINE
  5
DF7
330
1F
100
AcDbEntity
  8
图层1
100
AcDbLine
 10
313.3815009242984
 20
1344.91463985376
 30
0.0
 11
208.0755602731964
 21
1288.373130602534
 31
0.0
  0
LINE
  5
DFA
330
1F
100
AcDbEntity
  8
图层1
100
AcDbLine
 10
1236.756557024085
 20
4596.08506847968
 30
0.0
 11
652.4615637515101
 21
3025.715655129728
 31
0.0
  0
LINE
  5
E01
330
1F
100
AcDbEntity
  8
图层1
100
AcDbLine
 10
7013.112215443458
 20
359.9138168183318
 30
0.0
 11
8479.702108295928
 21
16.45022429610714
 31
0.0
  0
LINE
  5
E02
330
1F
100
AcDbEntity
  8
图层1
100
AcDbLine
 10
8335.661833706955
 20
32.80570252518106
 30
0.0
 11
8899.405852986385
 21
36.07668214793836
 31
0.0
  0
LINE
  5
E03
330
1F
100
AcDbEntity
  8
图层1
100
AcDbLine
 10
8817.5649513111
 20
490.7572075643884
 30
0.0
 11
9072.908780268337
 21
134.2092614646872
 31
0.0
  0
LINE
  5
E04
330
1F
100
AcDbEntity
  8
图层1
100
AcDbLine
 10
8089.035308418621
 20
396.3713023442297
 30
0.0
 11
8863.876503456735
 21
792.2214739406236
 31
0.0
  0
LINE
  5
E05
330
1F
100
AcDbEntity
  8
图层1
100
AcDbLine
 10
7759.873229745892
 20
23.80652027046477
 30
0.0
 11
8190.988031006419
 21
466.227325883262
 31
0.0
  0
LINE
  5
E06
330
1F
100
AcDbEntity
  8
图层1
100
AcDbLine
 10
8182.249154303107
 20
393.4607192969316
 30
0.0
 11
7564.706661273667
 21
669.9736502905189
 31
0.0
  0
LINE
  5
E07
330
1F
100
AcDbEntity
  8
图层1
100
AcDbLine
 10
7346.236181892049
 20
917.380025666881
 30
0.0
 11
7392.843284609613
 21
553.5471377638505
 31
0.0
  0
LINE
  5
E08
330
1F
100
AcDbEntity
  8
图层1
100
AcDbLine
 10
7364.667103870714
 20
622.2744021291918
 30
0.0
 11
7535.652098482301
 21
617.0970188910477
 31
0.0
  0
LINE
  5
E09
330
1F
100
AcDbEntity
  8
图层1
100
AcDbLine
 10
7603.009943482468
 20
666.2816520526584
 30
0.0
 11
7478.657220128633
 21
606.7423974435414
 31
0.0
  0
LINE
  5
E0A
330
1F
100
AcDbEntity
  8
图层1
100
AcDbLine
 10
7330.988361145895
 20
492.8414164922479
 30
0.0
 11
7595.23789827287
 21
448.8341665687667
 31
0.0
  0
LINE
  5
E0B
330
1F
100
AcDbEntity
  8
图层1
100
AcDbLine
 10
7631.507562434592
 20
492.8414164922479
 30
0.0
 11
7825.808692674968
 21
410.0042998834734
 31
0.0
  0
LINE
  5
E0C
330
1F
100
AcDbEntity
  8
图层1
100
AcDbLine
 10
7805.083118932497
 20
443.6567833306372
 30
0.0
 11
7745.49731914187
 21
314.2237976937077
 31
0.0
  0
LINE
  5
E0D
330
1F
100
AcDbEntity
  8
图层1
100
AcDbLine
 10
7535.652098482301
 20
404.8269166453147
 30
0.0
 11
7776.585499980372
 21
321.9898000365256
 31
0.0
  0
LINE
  5
E0E
330
1F
100
AcDbEntity
  8
图层1
100
AcDbLine
 10
7533.061536595866
 20
464.3661712544317
 30
0.0
 11
7558.96823411109
 21
381.5289096168172
 31
0.0
  0
LINE
  5
E0F
330
1F
100
AcDbEntity
  8
图层1
100
AcDbLine
 10
7442.387555966911
 20
469.5434094637795
 30
0.0
 11
7672.958350369009
 21
485.0754141494154
 31
0.0
  0
LINE
  5
E10
330
1F
100
AcDbEntity
  8
图层1
100
AcDbLine
 10
7761.041409561179
 20
399.6495334071415
 30
0.0
 11
7976.068113544025
 21
327.1670382458733
 31
0.0
  0
LINE
  5
E11
330
1F
100
AcDbEntity
  8
图层1
100
AcDbLine
 10
8033.063351448218
 20
262.450545427394
 30
0.0
 11
7921.663797076677
 21
360.8196667218336
 31
0.0
  0
LINE
  5
E12
330
1F
100
AcDbEntity
  8
图层1
100
AcDbLine
 10
10784.62443431281
 20
1958.524834004497
 30
0.0
 11
10117.16913058766
 21
1689.397204745842
 31
0.0
  0
LINE
  5
E13
330
1F
100
AcDbEntity
  8
图层1
100
AcDbLine
 10
10213.61893163895
 20
1745.396596331415
 30
0.0
 11
9976.067103290176
 21
1562.177358642647
 31
0.0
  0
LINE
  5
E14
330
1F
100
AcDbEntity
  8
图层1
100
AcDbLine
 10
10511.69211037207
 20
1536.606895300011
 30
0.0
 11
10189.55852632172
 21
1291.677466850019
 31
0.0
  0
LINE
  5
E15
330
1F
100
AcDbEntity
  8
图层1
100
AcDbLine
 10
10171.09021108336
 20
1337.994155432407
 30
0.0
 11
10291.50118149345
 21
1170.552021106302
 31
0.0
  0
LINE
  5
E16
330
1F
100
AcDbEntity
  8
图层1
100
AcDbLine
 10
10286.77920380386
 20
1222.435495262897
 30
0.0
 11
10218.30998797918
 21
1057.351674302325
 31
0.0
  0
LINE
  5
E17
330
1F
100
AcDbEntity
  8
图层1
100
AcDbLine
 10
10035.8948806171
 20
1580.552217924594
 30
0.0
 11
10176.41479553515
 21
662.337738783991
 31
0.0
  0
LINE
  5
E18
330
1F
100
AcDbEntity
  8
图层1
100
AcDbLine
 10
10138.22117625142
 20
803.2597611654537
 30
0.0
 11
10455.68168149027
 21
33.66122743403418
 31
0.0
  0
LINE
  5
E19
330
1F
100
AcDbEntity
  8
图层1
100
AcDbLine
 10
8817.825625477302
 20
447.4536373930505
 30
0.0
 11
10203.51448185521
 21
824.9424373861739
 31
0.0
  0
LINE
  5
E1A
330
1F
100
AcDbEntity
  8
图层1
100
AcDbLine
 10
9768.395365851002
 20
767.0956689080094
 30
0.0
 11
10092.94261290523
 21
137.2584920476702
 31
0.0
  0
LINE
  5
E1B
330
1F
100
AcDbEntity
  8
图层1
100
AcDbLine
 10
10244.39753943309
 20
600.3740376751856
 30
0.0
 11
9817.850468665888
 21
405.8654679035581
 31
0.0
  0
LINE
  5
E1C
330
1F
100
AcDbEntity
  8
图层1
100
AcDbLine
 10
10046.57856637583
 20
816.4946546404289
 30
0.0
 11
10179.48823384248
 21
442.9148159745137
 31
0.0
  0
LINE
  5
E1D
330
1F
100
AcDbEntity
  8
图层1
100
AcDbLine
 10
10191.85209943389
 20
489.2262835199844
 30
0.0
 11
10142.39735616959
 21
421.3026237520581
 31
0.0
  0
LINE
  5
E1E
330
1F
100
AcDbEntity
  8
图层1
100
AcDbLine
 10
10139.30629988405
 20
461.439344981166
 30
0.0
 11
10225.85228037188
 21
251.4936193610384
 31
0.0
  0
LINE
  5
E1F
330
1F
100
AcDbEntity
  8
图层1
100
AcDbLine
 10
1636.233469762026
 20
3874.111528162471
 30
0.0
 11
1862.336129179866
 21
3812.944470268519
 31
0.0
  0
LINE
  5
E20
330
1F
100
AcDbEntity
  8
图层1
100
AcDbLine
 10
1928.282738176758
 20
4330.511950153658
 30
0.0
 11
1862.336129179866
 21
3878.816697618056
 31
0.0
  0
LINE
  5
E21
330
1F
100
AcDbEntity
  8
图层1
100
AcDbLine
 10
1810.520936396614
 20
3784.713453534966
 30
0.0
 11
1890.598961607089
 21
4001.150813405931
 31
0.0
  0
LINE
  5
E22
330
1F
100
AcDbEntity
  8
图层1
100
AcDbLine
 10
1843.494240895089
 20
3982.330135583562
 30
0.0
 11
2361.64616872772
 21
3808.239300812949
 31
0.0
  0
LINE
  5
E23
330
1F
100
AcDbEntity
  8
图层1
100
AcDbLine
 10
2394.619473226137
 20
4170.536623749799
 30
0.0
 11
2234.463422805189
 21
3695.315378907418
 31
0.0
  0
LINE
  5
E24
330
1F
100
AcDbEntity
  8
图层1
100
AcDbLine
 10
2064.886428241736
 20
3949.394094423207
 30
0.0
 11
1956.545570604039
 21
3563.570924208344
 31
0.0
  0
LINE
  5
E25
330
1F
100
AcDbEntity
  8
图层1
100
AcDbLine
 10
2008.36076338729
 20
3817.649494695307
 30
0.0
 11
2290.989087659634
 21
3718.841226185415
 31
0.0
  0
LINE
  5
E26
330
1F
100
AcDbEntity
  8
图层1
100
AcDbLine
 10
1970.676986817679
 20
3709.430887274216
 30
0.0
 11
2154.385397594657
 21
3634.148321013466
 31
0.0
  0
LINE
  5
E27
330
1F
100
AcDbEntity
  8
图层1
100
AcDbLine
 10
1838.783768823896
 20
3638.853490469065
 30
0.0
 11
2013.071235458484
 21
3601.212134824314
 31
0.0
  0
LINE
  5
E28
330
1F
100
AcDbEntity
  8
图层1
100
AcDbLine
 10
1749.284799470917
 20
3652.968998835863
 30
0.0
 11
1725.732439114946
 21
3328.312886514939
 31
0.0
  0
LINE
  5
E2A
330
1F
100
AcDbEntity
  8
图层1
100
AcDbLine
 10
9886.169224984248
 20
1393.432478251624
 30
0.0
 11
9798.712494541835
 21
1289.981857017531
 31
0.0
  0
LINE
  5
E2B
330
1F
100
AcDbEntity
  8
图层1
100
AcDbLine
 10
9814.822918341555
 20
1340.557736861786
 30
0.0
 11
9918.390408819893
 21
984.2278707132981
 31
0.0
  0
LINE
  5
E2C
330
1F
100
AcDbEntity
  8
图层1
100
AcDbLine
 10
9340.714335525353
 20
568.1265242313575
 30
0.0
 11
9057.36434699048
 21
1502.95661206701
 31
0.0
  0
LINE
  5
E2D
330
1F
100
AcDbEntity
  8
图层1
100
AcDbLine
 10
9469.985742558145
 20
1121.200855786844
 30
0.0
 11
9750.256143256908
 21
1187.581755947428
 31
0.0
  0
LINE
  5
E2E
330
1F
100
AcDbEntity
  8
图层1
100
AcDbLine
 10
3304.750084278175
 20
97.75889833980642
 30
0.0
 11
4921.954329809349
 21
66.31597188712209
 31
0.0
  0
LINE
  5
E2F
330
1F
100
AcDbEntity
  8
图层1
100
AcDbLine
 10
4779.364604817064
 20
41.64865360122809
 30
0.0
 11
4784.304587838008
 21
271.0947253930108
 31
0.0
  0
LINE
  5
E30
330
1F
100
AcDbEntity
  8
图层1
100
AcDbLine
 10
1042.292415742065
 20
3115.241645161489
 30
0.0
 11
1301.801278549597
 21
3112.001556673761
 31
0.0
  0
LINE
  5
E31
330
1F
100
AcDbEntity
  8
图层1
100
AcDbLine
 10
1280.716154232972
 20
3120.101995436261
 30
0.0
 11
1334.239931344289
 21
3027.756210387864
 31
0.0
  0
LINE
  5
E32
330
1F
100
AcDbEntity
  8
图层1
100
AcDbLine
 10
1048.780146301027
 20
3181.665997164023
 30
0.0
 11
1048.780146301027
 21
3102.280856124145
 31
0.0
  0
LINE
  5
E33
330
1F
100
AcDbEntity
  8
图层1
100
AcDbLine
 10
1034.182752543363
 20
3171.945296614436
 30
0.0
 11
1202.863387525548
 21
3173.565413372683
 31
0.0
  0
LINE
  5
E34
330
1F
100
AcDbEntity
  8
图层1
100
AcDbLine
 10
1128.909587243573
 20
2151.969907563708
 30
0.0
 11
1130.336643472199
 21
2596.563679731819
 31
0.0
  0
LINE
  5
E35
330
1F
100
AcDbEntity
  8
图层1
100
AcDbLine
 10
1087.515608299874
 20
2194.607650500465
 30
0.0
 11
1084.802080117225
 21
1889.547249925167
 31
0.0
  0
LINE
  5
E36
330
1F
100
AcDbEntity
  8
图层1
100
AcDbLine
 10
867.6418030275975
 20
1932.746399358356
 30
0.0
 11
1099.354889603624
 21
2051.006366012477
 31
0.0
  0
LINE
  5
E37
330
1F
100
AcDbEntity
  8
图层1
100
AcDbLine
 10
1068.911023393973
 20
2051.006366012477
 30
0.0
 11
1204.217814538163
 21
1971.603241401001
 31
0.0
  0
LINE
  5
E38
330
1F
100
AcDbEntity
  8
图层1
100
AcDbLine
 10
1154.540149917886
 20
1992.699131084814
 30
0.0
 11
1306.530806801167
 21
1989.380727043467
 31
0.0
  0
LINE
  5
E39
330
1F
100
AcDbEntity
  8
图层1
100
AcDbLine
 10
1361.347168226378
 20
2023.394912325302
 30
0.0
 11
1263.342310942187
 21
1981.914209178828
 31
0.0
  0
LINE
  5
E3A
330
1F
100
AcDbEntity
  8
图层1
100
AcDbLine
 10
1256.697816332978
 20
2005.14332752588
 30
0.0
 11
1248.345816047281
 21
1767.263894218345
 31
0.0
  0
LINE
  5
E3B
330
1F
100
AcDbEntity
  8
图层1
100
AcDbLine
 10
1644.210638574267
 20
1981.5454009328
 30
0.0
 11
1325.493144528359
 21
2020.013710812234
 31
0.0
  0
LINE
  5
E3C
330
1F
100
AcDbEntity
  8
图层1
100
AcDbLine
 10
1454.274452303363
 20
2021.04370537114
 30
0.0
 11
1406.466810218875
 21
1849.926106090705
 31
0.0
  0
LINE
  5
E3D
330
1F
100
AcDbEntity
  8
图层1
100
AcDbLine
 10
896.518388284779
 20
1999.8199002831
 30
0.0
 11
890.9219835990237
 21
1909.794866140238
 31
0.0
  0
LINE
  5
E3E
330
1F
100
AcDbEntity
  8
图层1
100
AcDbLine
 10
693.3359993137432
 20
1912.27137798019
 30
0.0
 11
877.9267471995567
 21
1893.700439756581
 31
0.0
  0
LINE
  5
E3F
330
1F
100
AcDbEntity
  8
图层1
100
AcDbLine
 10
701.3039995862649
 20
2005.125779040715
 30
0.0
 11
912.4543888298225
 21
1983.901973952689
 31
0.0
  0
LINE
  5
E40
330
1F
100
AcDbEntity
  8
图层1
100
AcDbLine
 10
863.318566924719
 20
1887.067982537967
 30
0.0
 11
904.4863885573589
 21
1934.821761529228
 31
0.0
  0
LINE
  5
E41
330
1F
100
AcDbEntity
  8
图层1
100
AcDbLine
 10
1900.169658563741
 20
2967.80159328698
 30
0.0
 11
1877.798062293035
 21
2817.471552455148
 31
0.0
  0
LINE
  5
E42
330
1F
100
AcDbEntity
  8
图层1
100
AcDbLine
 10
1865.595634909348
 20
2845.912280837879
 30
0.0
 11
2081.176406326996
 21
2770.747332936361
 31
0.0
  0
LINE
  5
E43
330
1F
100
AcDbEntity
  8
图层1
100
AcDbLine
 10
2146.257217541397
 20
2890.60508191311
 30
0.0
 11
2044.568405075
 21
2776.841733295853
 31
0.0
  0
LINE
  5
E44
330
1F
100
AcDbEntity
  8
图层1
100
AcDbLine
 10
2117.784407578934
 20
2488.370597380029
 30
0.0
 11
2219.473220045331
 21
2482.276197020552
 31
0.0
  0
LINE
  5
E45
330
1F
100
AcDbEntity
  8
图层1
100
AcDbLine
 10
2209.304410708837
 20
2547.283762646626
 30
0.0
 11
2195.068005727605
 21
2466.024269356834
 31
0.0
  0
LINE
  5
E46
330
1F
100
AcDbEntity
  8
图层1
100
AcDbLine
 10
2186.932814438072
 20
2529.000416539338
 30
0.0
 11
2310.993582725817
 21
2500.55954312781
 31
0.0
  0
LINE
  5
E47
330
1F
100
AcDbEntity
  8
图层1
100
AcDbLine
 10
2288.621986455111
 20
2868.258753889885
 30
0.0
 11
2284.554390810373
 21
2486.339178936474
 31
0.0
  0
LINE
  5
E48
330
1F
100
AcDbEntity
  8
图层1
100
AcDbLine
 10
2302.858391436342
 20
2606.196927913193
 30
0.0
 11
2109.649216289459
 21
2608.228346356763
 31
0.0
  0
LINE
  5
E49
330
1F
100
AcDbEntity
  8
图层1
100
AcDbLine
 10
1971.35204302054
 20
2833.72348011888
 30
0.0
 11
1946.946828702757
 21
2728.086095333497
 31
0.0
  0
LINE
  5
E4A
330
1F
100
AcDbEntity
  8
图层1
100
AcDbLine
 10
1865.595634909348
 20
2758.558387188581
 30
0.0
 11
2005.926426225402
 21
2754.495405272644
 31
0.0
  0
LINE
  5
E4B
330
1F
100
AcDbEntity
  8
图层1
100
AcDbLine
 10
1981.520852357092
 20
2770.747332936361
 30
0.0
 11
1985.58844800183
 21
2482.276197020552
 31
0.0
  0
LINE
  5
E4C
330
1F
100
AcDbEntity
  8
图层1
100
AcDbLine
 10
1955.082019992174
 20
2362.418448043788
 30
0.0
 11
1989.656043646451
 21
2539.157798814767
 31
0.0
  0
LINE
  5
E4D
330
1F
100
AcDbEntity
  8
图层1
100
AcDbLine
 10
1977.453616262939
 20
2396.953721814822
 30
0.0
 11
1828.98763365741
 21
2394.922303371238
 31
0.0
  0
LINE
  5
E4E
330
1F
100
AcDbEntity
  8
图层1
100
AcDbLine
 10
1847.291634283437
 20
2372.575830319231
 30
0.0
 11
1828.98763365741
 21
2650.889583959656
 31
0.0
  0
LINE
  5
E4F
330
1F
100
AcDbEntity
  8
图层1
100
AcDbLine
 10
1855.42646602227
 20
2740.275041081293
 30
0.0
 11
1828.98763365741
 21
2565.567108753928
 31
0.0
  0
LINE
  5
E50
330
1F
100
AcDbEntity
  8
图层1
100
AcDbLine
 10
1883.899635535375
 20
2772.778751379931
 30
0.0
 11
1845.257656685776
 21
2701.67678539435
 31
0.0
  0
LINE
  5
E51
330
1F
100
AcDbEntity
  8
图层1
100
AcDbLine
 10
1837.122465396301
 20
2713.865731142146
 30
0.0
 11
1999.825212533645
 21
2711.834167669779
 31
0.0
  0
LINE
  5
E52
330
1F
100
AcDbEntity
  8
图层1
100
AcDbLine
 10
1826.953656059749
 20
2569.630090669836
 30
0.0
 11
2003.892448627741
 21
2567.59867222628
 31
0.0
  0
LINE
  5
E53
330
1F
100
AcDbEntity
  8
图层1
100
AcDbLine
 10
1851.359229928175
 20
2616.354310188622
 30
0.0
 11
1094.888192821703
 21
2586.542769560013
 31
0.0
  0
LINE
  5
E54
330
1F
100
AcDbEntity
  8
图层1
100
AcDbLine
 10
1029.867426553102
 20
2748.182736564651
 30
0.0
 11
1669.14079673018
 21
2777.630544955352
 31
0.0
  0
LINE
  5
E55
330
1F
100
AcDbEntity
  8
图层1
100
AcDbLine
 10
1510.874184576039
 20
2782.2801683794
 30
0.0
 11
1507.770903571044
 21
2627.291802395373
 31
0.0
  0
LINE
  5
E56
330
1F
100
AcDbEntity
  8
图层1
100
AcDbLine
 10
1523.286949045492
 20
2658.289533603694
 30
0.0
 11
1392.949865936361
 21
2662.939157027727
 31
0.0
  0
LINE
  5
E57
330
1F
100
AcDbEntity
  8
图层1
100
AcDbLine
 10
1420.879394981429
 20
2783.830091197019
 30
0.0
 11
1405.362989956456
 21
2624.192101788945
 31
0.0
  0
LINE
  5
E58
330
1F
100
AcDbEntity
  8
图层1
100
AcDbLine
 10
1299.851795336815
 20
2639.690894878722
 30
0.0
 11
1420.879394981429
 21
2639.690894878722
 31
0.0
  0
LINE
  5
E59
330
1F
100
AcDbEntity
  8
图层1
100
AcDbLine
 10
1312.264919356852
 20
2777.630544955352
 30
0.0
 11
1313.816380084086
 21
2621.092256153705
 31
0.0
  0
LINE
  5
E5A
330
1F
100
AcDbEntity
  8
图层1
100
AcDbLine
 10
1445.705283470977
 20
2974.465811813459
 30
0.0
 11
1590.007310877788
 21
2962.066719330096
 31
0.0
  0
LINE
  5
E5B
330
1F
100
AcDbEntity
  8
图层1
100
AcDbLine
 10
1568.284343842768
 20
2976.015734631049
 30
0.0
 11
1565.181422388415
 21
2813.277899587721
 31
0.0
  0
LINE
  5
E5C
330
1F
100
AcDbEntity
  8
图层1
100
AcDbLine
 10
1576.042726130575
 20
2836.52616173677
 30
0.0
 11
1462.77350877371
 21
2825.676992071084
 31
0.0
  0
LINE
  5
E5D
330
1F
100
AcDbEntity
  8
图层1
100
AcDbLine
 10
1473.634812515987
 20
2836.52616173677
 30
0.0
 11
1473.634812515987
 21
2759.032051259162
 31
0.0
  0
LINE
  5
E5E
330
1F
100
AcDbEntity
  8
图层1
100
AcDbLine
 10
1462.77350877371
 20
2983.765203690365
 30
0.0
 11
1459.670227768774
 21
2876.82313979323
 31
0.0
  0
LINE
  5
E5F
330
1F
100
AcDbEntity
  8
图层1
100
AcDbLine
 10
1098.139608663159
 20
2892.321932882948
 30
0.0
 11
1048.487112583128
 21
2723.384696626793
 31
0.0
  0
LINE
  5
E60
330
1F
100
AcDbEntity
  8
图层1
100
AcDbLine
 10
1074.864821350436
 20
2876.82313979323
 30
0.0
 11
1419.327574703669
 21
2873.723439186758
 31
0.0
  0
LINE
  5
E61
330
1F
100
AcDbEntity
  8
图层1
100
AcDbLine
 10
1473.634812515987
 20
2906.270948183916
 30
0.0
 11
1352.607572421957
 21
2865.973970127486
 31
0.0
  0
LINE
  5
E62
330
1F
100
AcDbEntity
  8
图层1
100
AcDbLine
 10
1406.91445068369
 20
2895.421778518187
 30
0.0
 11
1419.327574703669
 21
2729.584242868446
 31
0.0
  0
LINE
  5
E63
330
1F
100
AcDbEntity
  8
图层1
100
AcDbLine
 10
1209.857005742263
 20
2898.521479124644
 30
0.0
 11
1209.857005742263
 21
2741.983190322998
 31
0.0
  0
LINE
  5
E64
330
1F
100
AcDbEntity
  8
图层1
100
AcDbLine
 10
984.8700317558263
 20
2681.537795752743
 30
0.0
 11
1071.761540345383
 21
2765.231452472033
 31
0.0
  0
LINE
  5
E65
330
1F
100
AcDbEntity
  8
图层1
100
AcDbLine
 10
865.0663422654046
 20
2744.927565081413
 30
0.0
 11
944.1994685671538
 21
2692.231494541649
 31
0.0
  0
LINE
  5
E66
330
1F
100
AcDbEntity
  8
图层1
100
AcDbLine
 10
911.6151977898566
 20
2704.630587024968
 30
0.0
 11
1021.781134141668
 21
2690.681571724029
 31
0.0
  0
LINE
  5
E67
330
1F
100
AcDbEntity
  8
图层1
100
AcDbLine
 10
928.6830635421223
 20
2720.129380114731
 30
0.0
 11
899.2020737698197
 21
2585.289430644513
 31
0.0
  0
LINE
  5
E68
330
1F
100
AcDbEntity
  8
图层1
100
AcDbLine
 10
837.1368132203365
 20
2642.635124608311
 30
0.0
 11
1026.43623542454
 21
2619.386862459248
 31
0.0
  0
LINE
  5
E69
330
1F
100
AcDbEntity
  8
图层1
100
AcDbLine
 10
1000.058526657232
 20
2713.929833873063
 30
0.0
 11
995.4034253744771
 21
2616.287161852849
 31
0.0
  0
LINE
  5
E6A
330
1F
100
AcDbEntity
  8
图层1
100
AcDbLine
 10
900.7538940476383
 20
2616.287161852849
 30
0.0
 11
939.5447268349247
 21
2532.593360104748
 31
0.0
  0
LINE
  5
E6B
330
1F
100
AcDbEntity
  8
图层1
100
AcDbLine
 10
818.5171271903103
 20
2605.437992187134
 30
0.0
 11
928.6830635421223
 21
2600.788368763072
 31
0.0
  0
LINE
  5
E6C
330
1F
100
AcDbEntity
  8
图层1
100
AcDbLine
 10
837.1368132203365
 20
2619.386862459248
 30
0.0
 11
793.6297555526847
 21
2344.746398341148
 31
0.0
  0
LINE
  5
E6D
330
1F
100
AcDbEntity
  8
图层1
100
AcDbLine
 10
798.2844972848555
 20
2398.992246669707
 30
0.0
 11
802.9392390170846
 21
2231.604788202346
 31
0.0
  0
LINE
  5
E6E
330
1F
100
AcDbEntity
  8
图层1
100
AcDbLine
 10
792.0779352749244
 20
2245.5538035033
 30
0.0
 11
1103.95641785086
 21
2240.904035050441
 31
0.0
  0
LINE
  5
E6F
330
1F
100
AcDbEntity
  8
图层1
100
AcDbLine
 10
1100.898080667657
 20
2597.876190398941
 30
0.0
 11
1091.543293830881
 21
2223.855319143074
 31
0.0
  0
LINE
  5
E70
330
1F
100
AcDbEntity
  8
图层1
100
AcDbLine
 10
922.4153779345227
 20
2544.681365805683
 30
0.0
 11
1107.059698855913
 21
2533.832196139939
 31
0.0
  0
LINE
  5
E71
330
1F
100
AcDbEntity
  8
图层1
100
AcDbLine
 10
1117.671114949103
 20
2352.894841637496
 30
0.0
 11
1277.969187846932
 21
2364.197226312555
 31
0.0
  0
LINE
  5
E72
330
1F
100
AcDbEntity
  8
图层1
100
AcDbLine
 10
1396.778360449361
 20
2338.76686079364
 30
0.0
 11
1234.594444790449
 21
2364.197226312555
 31
0.0
  0
LINE
  5
E73
330
1F
100
AcDbEntity
  8
图层1
100
AcDbLine
 10
1381.691258809763
 20
2353.836803712945
 30
0.0
 11
1358.118044520439
 21
2144.742542195197
 31
0.0
  0
LINE
  5
E74
330
1F
100
AcDbEntity
  8
图层1
100
AcDbLine
 10
1377.919573287597
 20
2194.661456186387
 30
0.0
 11
1149.730801438856
 21
2202.196427646069
 31
0.0
  0
LINE
  5
E75
330
1F
100
AcDbEntity
  8
图层1
100
AcDbLine
 10
1254.395973557608
 20
2370.790380725555
 30
0.0
 11
1256.281816318691
 21
2190.894042970967
 31
0.0
  0
LINE
  5
E76
330
1F
100
AcDbEntity
  8
图层1
100
AcDbLine
 10
1151.616644199939
 20
2367.022822481323
 30
0.0
 11
1154.4452285663
 21
2191.835860017633
 31
0.0
  0
LINE
  5
E77
330
1F
100
AcDbEntity
  8
图层1
100
AcDbLine
 10
1221.393185912051
 20
2209.731254076881
 30
0.0
 11
1221.393185912051
 21
2149.45191748611
 31
0.0
  0
LINE
  5
E78
330
1F
100
AcDbEntity
  8
图层1
100
AcDbLine
 10
2492.185499034765
 20
2851.067184611534
 30
0.0
 11
2475.97911645804
 21
2616.339372221924
 31
0.0
  0
LINE
  5
E79
330
1F
100
AcDbEntity
  8
图层1
100
AcDbLine
 10
2913.552165130388
 20
2756.636465491295
 30
0.0
 11
2908.149917754695
 21
2535.398797269915
 31
0.0
  0
LINE
  5
E7A
330
1F
100
AcDbEntity
  8
图层1
100
AcDbLine
 10
2900.260299507298
 20
2731.207405231578
 30
0.0
 11
3129.725835444698
 21
2728.55758397206
 31
0.0
  0
LINE
  5
E7B
330
1F
100
AcDbEntity
  8
图层1
100
AcDbLine
 10
3116.462014766353
 20
2739.156869010189
 30
0.0
 11
3119.114778901975
 21
2637.139983262799
 31
0.0
  0
LINE
  5
E7C
330
1F
100
AcDbEntity
  8
图层1
100
AcDbLine
 10
3047.489428137954
 20
2664.962743915957
 30
0.0
 11
3218.59379354003
 21
2660.988084541042
 31
0.0
  0
LINE
  5
E7D
330
1F
100
AcDbEntity
  8
图层1
100
AcDbLine
 10
3202.677208726063
 20
2674.237045809923
 30
0.0
 11
3198.698062522571
 21
2516.574783785041
 31
0.0
  0
LINE
  5
E7E
330
1F
100
AcDbEntity
  8
图层1
100
AcDbLine
 10
3219.9201756079
 20
2535.123242544234
 30
0.0
 11
3046.163046070027
 21
2543.07256129402
 31
0.0
  0
LINE
  5
E7F
330
1F
100
AcDbEntity
  8
图层1
100
AcDbLine
 10
3079.322957316473
 20
2558.971343822447
 30
0.0
 11
2883.017332625519
 21
2565.595824456895
 31
0.0
  0
LINE
  5
E80
330
1F
100
AcDbEntity
  8
图层1
100
AcDbLine
 10
1332.688470617112
 20
3923.158238932437
 30
0.0
 11
1246.199299119938
 21
3684.444744978847
 31
0.0
  0
LINE
  5
E81
330
1F
100
AcDbEntity
  8
图层1
100
AcDbLine
 10
1189.298623016687
 20
3948.166280577022
 30
0.0
 11
1348.620875656373
 21
3893.603254256323
 31
0.0
  0
LINE
  5
E82
330
1F
100
AcDbEntity
  8
图层1
100
AcDbLine
 10
1296.272109821149
 20
4193.700189077911
 30
0.0
 11
1437.386002287561
 21
4070.933307341857
 31
0.0
  0
LINE
  5
E83
330
1F
100
AcDbEntity
  8
图层1
100
AcDbLine
 10
1476.078318217538
 20
4189.153246046369
 30
0.0
 11
1389.589146720363
 21
4064.112892794573
 31
0.0
  0
LINE
  5
E84
330
1F
100
AcDbEntity
  8
图层1
100
AcDbLine
 10
1414.625372295677
 20
4130.043276694127
 30
0.0
 11
1371.381146097673
 21
3923.158238932437
 31
0.0
  0
LINE
  5
E85
330
1F
100
AcDbEntity
  8
图层1
100
AcDbLine
 10
1360.001010877023
 20
3961.807109671621
 30
0.0
 11
1530.703039186775
 21
3893.603254256323
 31
0.0
  0
LINE
  5
E86
330
1F
100
AcDbEntity
  8
图层1
100
AcDbLine
 10
1389.589146720363
 20
4050.472063699989
 30
0.0
 11
1469.250093264914
 21
3968.627524218934
 31
0.0
  0
LINE
  5
E87
330
1F
100
AcDbEntity
  8
图层1
100
AcDbLine
 10
1439.661957421516
 20
3986.815151316206
 30
0.0
 11
1562.567489714654
 21
3957.260166640093
 31
0.0
  0
LINE
  5
E88
330
1F
100
AcDbEntity
  8
图层1
100
AcDbLine
 10
1505.666813611403
 20
3877.688953645968
 30
0.0
 11
1587.603715290026
 21
4080.027048376131
 31
0.0
  0
LINE
  5
E89
330
1F
100
AcDbEntity
  8
图层1
100
AcDbLine
 10
1578.499535203389
 20
4155.051318338712
 30
0.0
 11
1580.775490337402
 21
4041.378322665729
 31
0.0
  0
LINE
  5
E8A
330
1F
100
AcDbEntity
  8
图层1
100
AcDbLine
 10
1460.146272728861
 20
4184.606303014827
 30
0.0
 11
1601.259805644689
 21
4114.128976083802
 31
0.0
  0
LINE
  5
E8B
330
1F
100
AcDbEntity
  8
图层1
100
AcDbLine
 10
341.5765266097746
 20
1293.204185059153
 30
0.0
 11
737.599191838702
 21
1294.157314352434
 31
0.0
  0
LINE
  5
E8C
330
1F
100
AcDbEntity
  8
图层1
100
AcDbLine
 10
1027.399111861946
 20
1638.068320731899
 30
0.0
 11
1031.049628840702
 21
1911.655730711475
 31
0.0
  0
LINE
  5
E8D
330
1F
100
AcDbEntity
  8
图层1
100
AcDbLine
 10
879.3031067972201
 20
1848.169952315239
 30
0.0
 11
875.0107920436434
 21
1700.241298403421
 31
0.0
  0
LINE
  5
E8E
330
1F
100
AcDbEntity
  8
图层1
100
AcDbLine
 10
859.9866117545765
 20
1730.255734327443
 30
0.0
 11
1008.082257268719
 21
1723.824142000962
 31
0.0
  0
LINE
  5
E8F
330
1F
100
AcDbEntity
  8
图层1
100
AcDbLine
 10
995.204234356411
 20
1713.104628085134
 30
0.0
 11
995.204234356411
 21
1876.040572473333
 31
0.0
  0
LINE
  5
E90
330
1F
100
AcDbEntity
  8
图层1
100
AcDbLine
 10
868.5716008121975
 20
1822.443292951783
 30
0.0
 11
1008.082257268719
 21
1850.313913109906
 31
0.0
  0
LINE
  5
E91
330
1F
100
AcDbEntity
  8
图层1
100
AcDbLine
 10
909.3518269259961
 20
1740.975248243301
 30
0.0
 11
909.3518269259961
 21
1642.35609729248
 31
0.0
  0
LINE
  5
E92
330
1F
100
AcDbEntity
  8
图层1
100
AcDbLine
 10
1022.617808327662
 20
1896.916743520608
 30
0.0
 11
1097.449631111523
 21
1904.286237116049
 31
0.0
  0
LINE
  5
E93
330
1F
100
AcDbEntity
  8
图层1
100
AcDbLine
 10
1016.294032830455
 20
1754.790982074254
 30
0.0
 11
1176.497543927167
 21
1793.743978213349
 31
0.0
  0
LINE
  5
E94
330
1F
100
AcDbEntity
  8
图层1
100
AcDbLine
 10
1143.824464158156
 20
1790.585540941688
 30
0.0
 11
1269.565052728053
 21
1784.658648849658
 31
0.0
  0
LINE
  5
E95
330
1F
100
AcDbEntity
  8
图层1
100
AcDbLine
 10
1243.401995653462
 20
1792.197971173421
 30
0.0
 11
1333.070313326783
 21
1740.274904153605
 31
0.0
  0
LINE
  5
E96
330
1F
100
AcDbEntity
  8
图层1
100
AcDbLine
 10
1314.87669472705
 20
1744.818221465063
 30
0.0
 11
1461.074991861709
 21
1735.082582948749
 31
0.0
  0
LINE
  5
E97
330
1F
100
AcDbEntity
  8
图层1
100
AcDbLine
 10
1414.29170936288
 20
1913.567935478994
 30
0.0
 11
1431.185552637268
 21
1723.399932752222
 31
0.0
  0
LINE
  5
E98
330
1F
100
AcDbEntity
  8
图层1
100
AcDbLine
 10
1423.538990578092
 20
1733.102359672649
 30
0.0
 11
1506.709869826854
 21
1766.203298582031
 31
0.0
  0
LINE
  5
E99
330
1F
100
AcDbEntity
  8
图层1
100
AcDbLine
 10
1487.866543339799
 20
1764.256141873008
 30
0.0
 11
1599.627086487658
 21
1690.265782246953
 31
0.0
  0
LINE
  5
E9A
330
1F
100
AcDbEntity
  8
图层1
100
AcDbLine
 10
1419.640383703112
 20
1744.78500986919
 30
0.0
 11
1523.603713101301
 21
1692.861942849388
 31
0.0
  0
LINE
  5
E9B
330
1F
100
AcDbEntity
  8
图层1
100
AcDbLine
 10
1502.161555064611
 20
1700.650424656666
 30
0.0
 11
1637.963447349322
 21
1699.352416869854
 31
0.0
  0
LINE
  5
E9C
330
1F
100
AcDbEntity
  8
图层1
100
AcDbLine
 10
2640.241234435177
 20
2331.447982250441
 30
0.0
 11
2765.880789293734
 21
2329.423815247025
 31
0.0
  0
LINE
  5
E9D
330
1F
100
AcDbEntity
  8
图层1
100
AcDbLine
 10
2786.145059649659
 20
2359.786175269434
 30
0.0
 11
2731.431170138008
 21
2317.278958255357
 31
0.0
  0
LINE
  5
E9E
330
1F
100
AcDbEntity
  8
图层1
100
AcDbLine
 10
2735.484024209205
 20
2339.544650264089
 30
0.0
 11
2782.092205578463
 21
2297.037433249997
 31
0.0
  0
LINE
  5
E9F
330
1F
100
AcDbEntity
  8
图层1
100
AcDbLine
 10
2824.647532876524
 20
2345.617151274351
 30
0.0
 11
2763.854362258107
 21
2297.037433249997
 31
0.0
  0
LINE
  5
EA0
330
1F
100
AcDbEntity
  8
图层1
100
AcDbLine
 10
2769.933643364931
 20
2357.762008266004
 30
0.0
 11
2830.72681398329
 21
2321.327292262174
 31
0.0
  0
LINE
  5
EA1
330
1F
100
AcDbEntity
  8
图层1
100
AcDbLine
 10
3240.067592027249
 20
2323.351314236778
 30
0.0
 11
2798.32879040338
 21
2331.015361331102
 31
0.0
  0
LINE
  5
EA2
330
1F
100
AcDbEntity
  8
图层1
100
AcDbLine
 10
2882.705242727186
 20
2439.675871514938
 30
0.0
 11
2881.310905600841
 21
2317.084619659324
 31
0.0
  0
LINE
  5
EA3
330
1F
100
AcDbEntity
  8
图层1
100
AcDbLine
 10
2978.23926846625
 20
2440.372444855723
 30
0.0
 11
2976.147403226119
 21
2314.994899636968
 31
0.0
  0
LINE
  5
EA4
330
1F
100
AcDbEntity
  8
图层1
100
AcDbLine
 10
3218.120265433974
 20
2427.834704836719
 30
0.0
 11
3214.633703516972
 21
2308.726029627466
 31
0.0
  0
LINE
  5
EA5
330
1F
100
AcDbEntity
  8
图层1
100
AcDbLine
 10
3211.147141600029
 20
2343.553101350092
 30
0.0
 11
3240.434693163379
 21
2254.395774535563
 31
0.0
  0
LINE
  5
EA6
330
1F
100
AcDbEntity
  8
图层1
100
AcDbLine
 10
3228.846378160351
 20
2267.512759593713
 30
0.0
 11
3325.774741025759
 21
2266.119612912128
 31
0.0
  0
LINE
  5
EA7
330
1F
100
AcDbEntity
  8
图层1
100
AcDbLine
 10
3231.635411963567
 20
2413.786489834519
 30
0.0
 11
2639.397728788319
 21
2438.901562735734
 31
0.0
  0
LINE
  5
EA8
330
1F
100
AcDbEntity
  8
图层1
100
AcDbLine
 10
2656.83089792391
 20
2448.653154420395
 30
0.0
 11
2634.722133122794
 21
2113.630818347727
 31
0.0
  0
LINE
  5
EA9
330
1F
100
AcDbEntity
  8
图层1
100
AcDbLine
 10
2620.452649488756
 20
2393.739303425206
 30
0.0
 11
2644.965369428219
 21
2234.586870449571
 31
0.0
  0
LINE
  5
EAA
330
1F
100
AcDbEntity
  8
图层1
100
AcDbLine
 10
2447.113317718033
 20
2398.986010431171
 30
0.0
 11
2633.5845151064
 21
2377.998892349661
 31
0.0
  0
LINE
  5
EAB
330
1F
100
AcDbEntity
  8
图层1
100
AcDbLine
 10
2466.373363320542
 20
2407.730667136614
 30
0.0
 11
2454.117003350811
 21
2320.284390139835
 31
0.0
  0
LINE
  5
EAC
330
1F
100
AcDbEntity
  8
图层1
100
AcDbLine
 10
2443.611654676964
 20
2339.522605886047
 30
0.0
 11
2580.181906538493
 21
2335.150277533296
 31
0.0
  0
LINE
  5
EAD
330
1F
100
AcDbEntity
  8
图层1
100
AcDbLine
 10
2568.801052216733
 20
2350.89054358006
 30
0.0
 11
2576.679883946841
 21
2265.193168918592
 31
0.0
  0
LINE
  5
EAE
330
1F
100
AcDbEntity
  8
图层1
100
AcDbLine
 10
2560.921860936041
 20
2276.561106612648
 30
0.0
 11
2655.470718102066
 21
2267.816594935987
 31
0.0
  0
LINE
  5
EAF
330
1F
100
AcDbEntity
  8
图层1
100
AcDbLine
 10
3790.256914213941
 20
2392.260589749862
 30
0.0
 11
3793.889094113432
 21
2223.465481720622
 31
0.0
  0
LINE
  5
EB0
330
1F
100
AcDbEntity
  8
图层1
100
AcDbLine
 10
3788.440824264196
 20
2272.470424195319
 30
0.0
 11
3846.555702656218
 21
2041.965270433725
 31
0.0
  0
LINE
  5
EB1
330
1F
100
AcDbEntity
  8
图层1
100
AcDbLine
 10
3841.107432806808
 20
2094.600283847428
 30
0.0
 11
3841.107432806808
 21
1818.720113521301
 31
0.0
  0
LINE
  5
EB2
330
1F
100
AcDbEntity
  8
图层1
100
AcDbLine
 10
3519.724590355299
 20
2238.877982672599
 30
0.0
 11
3566.161266100652
 21
2041.639680770987
 31
0.0
  0
LINE
  5
EB3
330
1F
100
AcDbEntity
  8
图层1
100
AcDbLine
 10
3548.747512696138
 20
1867.605842319918
 30
0.0
 11
3618.402885864782
 21
1800.892882999416
 31
0.0
  0
LINE
  5
EB4
330
1F
100
AcDbEntity
  8
图层1
100
AcDbLine
 10
3592.282255757951
 20
1812.495187239115
 30
0.0
 11
3746.104103715218
 21
1809.594611179161
 31
0.0
  0
LINE
  5
EB5
330
1F
100
AcDbEntity
  8
图层1
100
AcDbLine
 10
3722.885765842513
 20
2064.844144221545
 30
0.0
 11
3725.78805807658
 21
1795.091875908406
 31
0.0
  0
LINE
  5
EB6
330
1F
100
AcDbEntity
  8
图层1
100
AcDbLine
 10
3737.397227012903
 20
2050.341408950747
 30
0.0
 11
3525.529174823432
 21
2053.241985010657
 31
0.0
  0
LINE
  5
EB7
330
1F
100
AcDbEntity
  8
图层1
100
AcDbLine
 10
3545.845220462013
 20
2067.744720281485
 30
0.0
 11
3540.040635993881
 21
1995.230753869914
 31
0.0
  0
LINE
  5
EB8
330
1F
100
AcDbEntity
  8
图层1
100
AcDbLine
 10
3560.35668163252
 20
2012.634065200609
 30
0.0
 11
3493.603960248527
 21
2009.733489140698
 31
0.0
  0
LINE
  5
EB9
330
1F
100
AcDbEntity
  8
图层1
100
AcDbLine
 10
3502.310836950784
 20
2024.236369440278
 30
0.0
 11
3502.310836950784
 21
1867.605842319918
 31
0.0
  0
LINE
  5
EBA
330
1F
100
AcDbEntity
  8
图层1
100
AcDbLine
 10
3493.603960248527
 20
1885.009298679452
 30
0.0
 11
3586.477311739292
 21
1844.401378869389
 31
0.0
  0
LINE
  5
EBF
330
1F
100
AcDbEntity
  8
图层1
100
AcDbLine
 10
3771.400284355625
 20
1456.569994819442
 30
0.0
 11
3768.836329211715
 21
1143.930824085972
 31
0.0
  0
LINE
  5
EC0
330
1F
100
AcDbEntity
  8
图层1
100
AcDbLine
 10
3756.015474840593
 20
1418.130835729393
 30
0.0
 11
4030.379888718018
 21
1423.256008598463
 31
0.0
  0
LINE
  5
EC1
330
1F
100
AcDbEntity
  8
图层1
100
AcDbLine
 10
4014.995079203161
 20
1618.01489808405
 30
0.0
 11
4007.302494670383
 21
1410.443003911384
 31
0.0
  0
LINE
  5
EC2
330
1F
100
AcDbEntity
  8
图层1
100
AcDbLine
 10
3917.557233174217
 20
1612.889725214966
 30
0.0
 11
4071.406406975003
 21
1597.514061578976
 31
0.0
  0
LINE
  5
EC3
330
1F
100
AcDbEntity
  8
图层1
100
AcDbLine
 10
4217.562996243128
 20
1459.132653768397
 30
0.0
 11
4030.379888718018
 21
1610.32706626604
 31
0.0
  0
LINE
  5
EC4
330
1F
100
AcDbEntity
  8
图层1
100
AcDbLine
 10
4289.359133529885
 20
1892.214909727486
 30
0.0
 11
4035.508158556303
 21
1579.575738994002
 31
0.0
  0
LINE
  5
EC5
330
1F
100
AcDbEntity
  8
图层1
100
AcDbLine
 10
4353.463045834506
 20
1782.022460297613
 30
0.0
 11
4356.117248172465
 21
1417.950564927266
 31
0.0
  0
LINE
  5
EC6
330
1F
100
AcDbEntity
  8
图层1
100
AcDbLine
 10
4348.42502319027
 20
1453.8272100972
 30
0.0
 11
4386.887226752879
 21
1364.135597172401
 31
0.0
  0
LINE
  5
EC7
330
1F
100
AcDbEntity
  8
图层1
100
AcDbLine
 10
4127.907622390427
 20
1451.264696177056
 30
0.0
 11
4127.907622390427
 21
1148.875871181725
 31
0.0
  0
LINE
  5
EC8
330
1F
100
AcDbEntity
  8
图层1
100
AcDbLine
 10
4430.62080128229
 20
1163.265338957372
 30
0.0
 11
3356.039191499005
 21
1168.791226409118
 31
0.0
  0
LINE
  5
EC9
330
1F
100
AcDbEntity
  8
图层1
100
AcDbLine
 10
4025.341506523256
 20
1346.197419616223
 30
0.0
 11
4022.777551379405
 21
1148.875871181725
 31
0.0
  0
LINE
  5
ECA
330
1F
100
AcDbEntity
  8
图层1
100
AcDbLine
 10
3938.689818166547
 20
1617.631731986538
 30
0.0
 11
3910.620423948161
 21
1569.177753934408
 31
0.0
  0
LINE
  5
ECB
330
1F
100
AcDbEntity
  8
图层1
100
AcDbLine
 10
3915.7238847969
 20
1597.230095182681
 30
0.0
 11
3915.7238847969
 21
1408.514265860334
 31
0.0
  0
LINE
  5
ECC
330
1F
100
AcDbEntity
  8
图层1
100
AcDbLine
 10
5275.178852637183
 20
2331.518466248706
 30
0.0
 11
4234.022502423964
 21
2351.838596865249
 31
0.0
  0
LINE
  5
ECD
330
1F
100
AcDbEntity
  8
图层1
100
AcDbLine
 10
4540.081299407699
 20
2366.131910544519
 30
0.0
 11
4528.639681038913
 21
1860.150781730718
 31
0.0
  0
LINE
  5
ECE
330
1F
100
AcDbEntity
  8
图层1
100
AcDbLine
 10
4517.198422220653
 20
1897.313252268014
 30
0.0
 11
4717.423867270351
 21
1628.600115328319
 31
0.0
  0
LINE
  5
ECF
330
1F
100
AcDbEntity
  8
图层1
100
AcDbLine
 10
4560.103951777857
 20
1863.009444466564
 30
0.0
 11
4362.738731545047
 21
1720.076887789187
 31
0.0
  0
LINE
  5
ED0
330
1F
100
AcDbEntity
  8
图层1
100
AcDbLine
 10
4630.992583415646
 20
1763.199462014371
 30
0.0
 11
4422.762463934836
 21
1600.775759358342
 31
0.0
  0
LINE
  5
ED1
330
1F
100
AcDbEntity
  8
图层1
100
AcDbLine
 10
4964.343426276581
 20
2351.518518297021
 30
0.0
 11
4957.930482237019
 21
2140.028671011435
 31
0.0
  0
LINE
  5
ED2
330
1F
100
AcDbEntity
  8
图层1
100
AcDbLine
 10
4932.280144281162
 20
1954.173969914588
 30
0.0
 11
4963.357898153017
 21
2215.776634700994
 31
0.0
  0
LINE
  5
ED3
330
1F
100
AcDbEntity
  8
图层1
100
AcDbLine
 10
4882.63951337
 20
2193.063673863818
 30
0.0
 11
4968.060100560951
 21
2193.84682939998
 31
0.0
  0
LINE
  5
ED4
330
1F
100
AcDbEntity
  8
图层1
100
AcDbLine
 10
4949.25201003009
 20
2178.966004039791
 30
0.0
 11
5040.941721030978
 21
2150.770519362956
 31
0.0
  0
LINE
  5
ED5
330
1F
100
AcDbEntity
  8
图层1
100
AcDbLine
 10
5014.296866187128
 20
2157.036198738763
 30
0.0
 11
5120.093184411992
 21
2158.602654839914
 31
0.0
  0
LINE
  5
ED6
330
1F
100
AcDbEntity
  8
图层1
100
AcDbLine
 10
5132.63179158239
 20
2295.66357539922
 30
0.0
 11
5107.55421769101
 21
2150.770519362956
 31
0.0
  0
LINE
  5
ED7
330
1F
100
AcDbEntity
  8
图层1
100
AcDbLine
 10
5124.011566568515
 20
2287.831584951045
 30
0.0
 11
5190.623703678081
 21
2286.265128849894
 31
0.0
  0
LINE
  5
ED8
330
1F
100
AcDbEntity
  8
图层1
100
AcDbLine
 10
5178.868557208626
 20
2339.523040972466
 30
0.0
 11
5159.276646426182
 21
2113.95988870171
 31
0.0
  0
LINE
  5
ED9
330
1F
100
AcDbEntity
  8
图层1
100
AcDbLine
 10
5171.031792895695
 20
2142.155228349793
 30
0.0
 11
4942.894436779026
 21
1942.098291661944
 31
0.0
  0
LINE
  5
EDA
330
1F
100
AcDbEntity
  8
图层1
100
AcDbLine
 10
5014.992596548052
 20
2018.069309650517
 30
0.0
 11
5070.633766990214
 21
1960.112029224435
 31
0.0
  0
LINE
  5
EDB
330
1F
100
AcDbEntity
  8
图层1
100
AcDbLine
 10
4928.7885486561
 20
1969.510475773791
 30
0.0
 11
4960.919066608884
 21
1941.315136125767
 31
0.0
  0
LINE
  5
EDC
330
1F
100
AcDbEntity
  8
图层1
100
AcDbLine
 10
5108.376150303463
 20
2248.466707011457
 30
0.0
 11
5180.343074112957
 21
2243.971394233788
 31
0.0
  0
LINE
  5
EDD
330
1F
100
AcDbEntity
  8
图层1
100
AcDbLine
 10
4898.459379079578
 20
2071.964623362238
 30
0.0
 11
4299.536931630806
 21
2071.964623362238
 31
0.0
  0
LINE
  5
EDE
330
1F
100
AcDbEntity
  8
图层1
100
AcDbLine
 10
4304.591134050803
 20
2364.932522343753
 30
0.0
 11
4327.334865165701
 21
2051.759935672851
 31
0.0
  0
LINE
  5
EDF
330
1F
100
AcDbEntity
  8
图层1
100
AcDbLine
 10
4885.038075249759
 20
2520.818906675913
 30
0.0
 11
5116.405993274705
 21
2515.792208364107
 31
0.0
  0
LINE
  5
EE0
330
1F
100
AcDbEntity
  8
图层1
100
AcDbLine
 10
5098.802037616493
 20
2576.112878163757
 30
0.0
 11
5096.286981350743
 21
2503.225317555703
 31
0.0
  0
LINE
  5
EE1
330
1F
100
AcDbEntity
  8
图层1
100
AcDbLine
 10
5091.257228369709
 20
2563.546132384164
 30
0.0
 11
5229.575255571924
 21
2561.032783228254
 31
0.0
  0
LINE
  5
EE2
330
1F
100
AcDbEntity
  8
图层1
100
AcDbLine
 10
5219.515749609914
 20
2611.300056404235
 30
0.0
 11
5214.485996628938
 21
2545.95254326394
 31
0.0
  0
LINE
  5
EE3
330
1F
100
AcDbEntity
  8
图层1
100
AcDbLine
 10
5207.577591898328
 20
2598.767537422134
 30
0.0
 11
5627.560707384837
 21
2598.767537422134
 31
0.0
  0
LINE
  5
EE4
330
1F
100
AcDbEntity
  8
图层1
100
AcDbLine
 10
5280.81121238036
 20
2913.306005359661
 30
0.0
 11
5373.861462753558
 21
2913.306005359661
 31
0.0
  0
LINE
  5
EE5
330
1F
100
AcDbEntity
  8
图层1
100
AcDbLine
 10
5336.138135620743
 20
2908.279307047798
 30
0.0
 11
5431.703442259809
 21
2933.41294363581
 31
0.0
  0
LINE
  5
EE6
330
1F
100
AcDbEntity
  8
图层1
100
AcDbLine
 10
5401.524924373779
 20
2933.41294363581
 30
0.0
 11
5514.694186671056
 21
2890.685717927573
 31
0.0
  0
LINE
  5
EE7
330
1F
100
AcDbEntity
  8
图层1
100
AcDbLine
 10
5494.575174746977
 20
2920.846052827405
 30
0.0
 11
5456.85184761422
 21
2744.910596711449
 31
0.0
  0
LINE
  5
EE8
330
1F
100
AcDbEntity
  8
图层1
100
AcDbLine
 10
5454.337150898996
 20
2782.611124107837
 30
0.0
 11
5476.970859538241
 21
2714.750261811617
 31
0.0
  0
LINE
  5
EE9
330
1F
100
AcDbEntity
  8
图层1
100
AcDbLine
 10
5471.941106557206
 20
2757.477487519853
 30
0.0
 11
5454.337150898996
 21
2579.028682247973
 31
0.0
  0
LINE
  5
EEA
330
1F
100
AcDbEntity
  8
图层1
100
AcDbLine
 10
5577.745694445273
 20
2616.891061788531
 30
0.0
 11
5700.9744627045
 21
2468.602591416468
 31
0.0
  0
LINE
  5
EEB
330
1F
100
AcDbEntity
  8
图层1
100
AcDbLine
 10
5633.072977236299
 20
2991.382261452517
 30
0.0
 11
5592.834953388258
 21
2566.623788612536
 31
0.0
  0
LINE
  5
EEC
330
1F
100
AcDbEntity
  8
图层1
100
AcDbLine
 10
5615.468662027446
 20
2951.168384900161
 30
0.0
 11
5708.51891240076
 21
3046.676232940289
 31
0.0
  0
LINE
  5
EED
330
1F
100
AcDbEntity
  8
图层1
100
AcDbLine
 10
5419.30901486968
 20
3106.996902739983
 30
0.0
 11
5655.706685875543
 21
3056.729629563987
 31
0.0
  0
LINE
  5
EEE
330
1F
100
AcDbEntity
  8
图层1
100
AcDbLine
 10
5625.528167989513
 20
3071.809869528302
 30
0.0
 11
5970.244764048142
 21
2835.069782497104
 31
0.0
  0
LINE
  5
EEF
330
1F
100
AcDbEntity
  8
图层1
100
AcDbLine
 10
5946.678740770324
 20
2861.100422231645
 30
0.0
 11
6017.376091502666
 21
2750.779767339894
 31
0.0
  0
LINE
  5
EF0
330
1F
100
AcDbEntity
  8
图层1
100
AcDbLine
 10
6015.626158858534
 20
2707.667345130908
 30
0.0
 11
6043.830024991592
 21
2457.41202394851
 31
0.0
  0
LINE
  5
EF1
330
1F
100
AcDbEntity
  8
图层1
100
AcDbLine
 10
5972.968000096328
 20
2764.936608915542
 30
0.0
 11
6030.171417782899
 21
2666.368798160988
 31
0.0
  0
LINE
  5
EF2
330
1F
100
AcDbEntity
  8
图层1
100
AcDbLine
 10
5335.614270434309
 20
2107.815598433987
 30
0.0
 11
5331.678629850271
 21
1840.360441331509
 31
0.0
  0
LINE
  5
EF3
330
1F
100
AcDbEntity
  8
图层1
100
AcDbLine
 10
5323.807708232839
 20
1863.959528155018
 30
0.0
 11
5441.873330248055
 21
1861.992937586391
 31
0.0
  0
LINE
  5
EF4
330
1F
100
AcDbEntity
  8
图层1
100
AcDbLine
 10
4377.638507335447
 20
825.6912210960045
 30
0.0
 11
4748.644003169495
 21
827.653025714132
 31
0.0
  0
LINE
  5
EF5
330
1F
100
AcDbEntity
  8
图层1
100
AcDbLine
 10
4497.381073228317
 20
1249.44362912959
 30
0.0
 11
4503.270152081387
 21
806.0731749147425
 31
0.0
  0
LINE
  5
EF6
330
1F
100
AcDbEntity
  8
图层1
100
AcDbLine
 10
4391.379451625632
 20
1063.071030177209
 30
0.0
 11
4513.085163653014
 21
1061.109225559126
 31
0.0
  0
LINE
  5
EF7
330
1F
100
AcDbEntity
  8
图层1
100
AcDbLine
 10
4489.529207791203
 20
1084.651026005424
 30
0.0
 11
4636.753662264383
 21
1096.421853714161
 31
0.0
  0
LINE
  5
EF8
330
1F
100
AcDbEntity
  8
图层1
100
AcDbLine
 10
4397.249833848852
 20
1241.737958768794
 30
0.0
 11
4522.881478594792
 21
1235.852544914441
 31
0.0
  0
LINE
  5
EF9
330
1F
100
AcDbEntity
  8
图层1
100
AcDbLine
 10
4794.95404455124
 20
927.7442190153569
 30
0.0
 11
4882.856182200079
 21
821.457105192535
 31
0.0
  0
LINE
  5
EFA
330
1F
100
AcDbEntity
  8
图层1
100
AcDbLine
 10
4869.898527427752
 20
853.1354565733391
 30
0.0
 11
4857.894783461409
 21
753.7361956912109
 31
0.0
  0
LINE
  5
EFB
330
1F
100
AcDbEntity
  8
图层1
100
AcDbLine
 10
4854.465142328119
 20
782.013621641764
 30
0.0
 11
4915.340853785922
 21
676.6161144965053
 31
0.0
  0
LINE
  5
EFC
330
1F
100
AcDbEntity
  8
图层1
100
AcDbLine
 10
4692.811904621486
 20
841.0401994322647
 30
0.0
 11
4768.923394902668
 21
725.4972023734636
 31
0.0
  0
LINE
  5
EFD
330
1F
100
AcDbEntity
  8
图层1
100
AcDbLine
 10
4771.813596021268
 20
745.717118087171
 30
0.0
 11
4724.605372897932
 21
632.0998134745504
 31
0.0
  0
LINE
  5
F01
330
1F
100
AcDbEntity
  8
图层1
100
AcDbLine
 10
4257.826178467018
 20
1211.5724025032
 30
0.0
 11
4276.124288218271
 21
525.3377968917529
 31
0.0
  0
LINE
  5
F02
330
1F
100
AcDbEntity
  8
图层1
100
AcDbLine
 10
4087.866874679924
 20
788.2114275377871
 30
0.0
 11
4341.263012700889
 21
779.4788082229834
 31
0.0
  0
LINE
  5
F03
330
1F
100
AcDbEntity
  8
图层1
100
AcDbLine
 10
4107.621222442657
 20
804.9686355511266
 30
0.0
 11
4107.621222442657
 21
643.4162659434996
 31
0.0
  0
LINE
  5
F04
330
1F
100
AcDbEntity
  8
图层1
100
AcDbLine
 10
4035.53449473891
 20
652.1487402294924
 30
0.0
 11
4347.910872998124
 21
647.782503086496
 31
0.0
  0
LINE
  5
F05
330
1F
100
AcDbEntity
  8
图层1
100
AcDbLine
 10
4330.435067943822
 20
789.6866605218429
 30
0.0
 11
4347.937248412113
 21
433.646895347837
 31
0.0
  0
LINE
  5
F06
330
1F
100
AcDbEntity
  8
图层1
100
AcDbLine
 10
4306.432603899507
 20
267.7281435684027
 30
0.0
 11
4352.306147343538
 21
481.676084035983
 31
0.0
  0
LINE
  5
F07
330
1F
100
AcDbEntity
  8
图层1
100
AcDbLine
 10
4334.830551617896
 20
285.1932371691992
 30
0.0
 11
4133.861200773682
 21
252.446168539148
 31
0.0
  0
LINE
  5
F08
330
1F
100
AcDbEntity
  8
图层1
100
AcDbLine
 10
4203.763583676017
 20
252.446168539148
 30
0.0
 11
4011.532030694537
 21
283.0101185976864
 31
0.0
  0
LINE
  5
F09
330
1F
100
AcDbEntity
  8
图层1
100
AcDbLine
 10
4044.298668015749
 20
671.6094301594903
 30
0.0
 11
4044.298668015749
 21
265.545024996919
 31
0.0
  0
LINE
  5
F0A
330
1F
100
AcDbEntity
  8
图层1
100
AcDbLine
 10
4186.287987950433
 20
283.0101185976864
 30
0.0
 11
4186.287987950433
 21
60.32970384411334
 31
0.0
  0
LINE
  5
F0B
330
1F
100
AcDbEntity
  8
图层1
100
AcDbLine
 10
3762.504791604996
 20
176.036148363889
 30
0.0
 11
3784.349286262005
 21
73.42856030192803
 31
0.0
  0
LINE
  5
F0C
330
1F
100
AcDbEntity
  8
图层1
100
AcDbLine
 10
3699.155652435382
 20
149.8384354483324
 30
0.0
 11
3795.271428926151
 21
147.6553168768342
 31
0.0
  0
LINE
  5
F10
330
1F
100
AcDbEntity
  8
图层1
100
AcDbLine
 10
4335.353454666678
 20
472.7057625130883
 30
0.0
 11
4419.922033047421
 21
474.4307350959325
 31
0.0
  0
LINE
  5
F13
330
1F
100
AcDbEntity
  8
图层1
100
AcDbLine
 10
6749.277185884247
 20
250.1286082672496
 30
0.0
 11
7352.58442821441
 21
131.8645808066258
 31
0.0
  0
LINE
  5
F14
330
1F
100
AcDbEntity
  8
图层1
100
AcDbLine
 10
7634.572980299768
 20
228.8744921593944
 30
0.0
 11
7599.959226684763
 21
96.98877940619883
 31
0.0
  0
LINE
  5
F15
330
1F
100
AcDbEntity
  8
图层1
100
AcDbLine
 10
7591.305788280966
 20
125.0955064556083
 30
0.0
 11
7747.720157051984
 21
40.13748863179813
 31
0.0
  0
LINE
  5
F16
330
1F
100
AcDbEntity
  8
图层1
100
AcDbLine
 10
10746.55113941245
 20
5010.100097651307
 30
0.0
 11
10819.59889509721
 21
4920.249098072008
 31
0.0
  0
LINE
  5
F17
330
1F
100
AcDbEntity
  8
图层1
100
AcDbLine
 10
10792.90844144154
 20
4928.672661007649
 30
0.0
 11
10909.50368025102
 21
5017.119636745124
 31
0.0
  0
LINE
  5
F18
330
1F
100
AcDbEntity
  8
图层1
100
AcDbLine
 10
10826.62270970817
 20
5074.680553452552
 30
0.0
 11
10906.69428000384
 21
4994.656995621893
 31
0.0
  0
LINE
  5
F19
330
1F
100
AcDbEntity
  8
图层1
100
AcDbLine
 10
10806.95607066335
 20
4960.962743879475
 30
0.0
 11
10825.21790492028
 21
4812.147093808545
 31
0.0
  0
LINE
  5
F1A
330
1F
100
AcDbEntity
  8
图层1
100
AcDbLine
 10
10753.57495402335
 20
4980.617772405462
 30
0.0
 11
10766.21798778587
 21
5057.833427581329
 31
0.0
  0
LINE
  5
F1B
330
1F
100
AcDbEntity
  8
图层1
100
AcDbLine
 10
10756.38456359913
 20
5035.370641429317
 30
0.0
 11
10846.28934875288
 21
5074.680553452552
 31
0.0
  0
LINE
  5
F1C
330
1F
100
AcDbEntity
  8
图层1
100
AcDbLine
 10
10771.2320377166
 20
1475.241728061174
 30
0.0
 11
11143.01798934169
 21
898.1326731060734
 31
0.0
  0
LINE
  5
F1D
330
1F
100
AcDbEntity
  8
图层1
100
AcDbLine
 10
8310.853457303835
 20
1186.944916766534
 30
0.0
 11
8591.48514086957
 21
1218.425593888828
 31
0.0
  0
LINE
  5
F1E
330
1F
100
AcDbEntity
  8
图层1
100
AcDbLine
 10
8190.582616159286
 20
1355.795425798516
 30
0.0
 11
8333.762178982436
 21
1178.359356657985
 31
0.0
  0
LINE
  5
F1F
330
1F
100
AcDbEntity
  8
图层1
100
AcDbLine
 10
8519.895359458054
 20
1195.53062190388
 30
0.0
 11
8811.981299198759
 21
1415.894781644824
 31
0.0
  0
LINE
  5
F20
330
1F
100
AcDbEntity
  8
图层1
100
AcDbLine
 10
8726.10462588136
 20
1736.860636073504
 30
0.0
 11
8832.057594475106
 21
1135.867222639416
 31
0.0
  0
LINE
  5
F21
330
1F
100
AcDbEntity
  8
图层1
100
AcDbLine
 10
8708.923136954606
 20
1224.585257209653
 30
0.0
 11
9127.007150591701
 21
1359.093380778639
 31
0.0
  0
LINE
  5
F22
330
1F
100
AcDbEntity
  8
图层1
100
AcDbLine
 10
8903.647166557902
 20
1447.811415348919
 30
0.0
 11
8986.834384963268
 21
1124.324670266568
 31
0.0
  0
LINE
  5
F23
330
1F
100
AcDbEntity
  8
图层1
100
AcDbLine
 10
8835.064182341042
 20
1092.84399314426
 30
0.0
 11
9172.967774767604
 21
1198.733292960421
 31
0.0
  0
LINE
  5
F24
330
1F
100
AcDbEntity
  8
图层1
100
AcDbLine
 10
8946.744174357972
 20
1238.799530191308
 30
0.0
 11
9135.740971209541
 21
1298.898886037587
 31
0.0
  0
LINE
  5
F25
330
1F
100
AcDbEntity
  8
图层1
100
AcDbLine
 10
8955.335023485707
 20
1187.285879482374
 30
0.0
 11
9152.922460136297
 21
1247.385235328683
 31
0.0
  0
LINE
  5
F26
330
1F
100
AcDbEntity
  8
图层1
100
AcDbLine
 10
8714.895284264816
 20
1257.558135685995
 30
0.0
 11
8714.895284264816
 21
1199.202751195747
 31
0.0
  0
LINE
  5
F27
330
1F
100
AcDbEntity
  8
图层1
100
AcDbLine
 10
8781.339348004435
 20
1289.754239893508
 30
0.0
 11
8795.43365752249
 21
1239.447953969478
 31
0.0
  0
LINE
  5
F28
330
1F
100
AcDbEntity
  8
图层1
100
AcDbLine
 10
8707.354427808317
 20
1234.595145192438
 30
0.0
 11
8785.992933943985
 21
1290.305494373683
 31
0.0
  0
LINE
  5
F29
330
1F
100
AcDbEntity
  8
图层1
100
AcDbLine
 10
7933.557974756697
 20
1134.184743495837
 30
0.0
 11
7954.924362702937
 21
982.1965883593703
 31
0.0
  0
LINE
  5
F2A
330
1F
100
AcDbEntity
  8
图层1
100
AcDbLine
 10
7936.071593575587
 20
996.0137724784189
 30
0.0
 11
8164.818860580737
 21
1019.879712299404
 31
0.0
  0
LINE
  5
F2B
330
1F
100
AcDbEntity
  8
图层1
100
AcDbLine
 10
8028.171608622129
 20
1057.504244603032
 30
0.0
 11
8079.530400861056
 21
755.9516556857897
 31
0.0
  0
LINE
  5
F2C
330
1F
100
AcDbEntity
  8
图层1
100
AcDbLine
 10
8003.80533132772
 20
854.2150509828543
 30
0.0
 11
8279.932680304513
 21
927.1706300994893
 31
0.0
  0
LINE
  5
F2D
330
1F
100
AcDbEntity
  8
图层1
100
AcDbLine
 10
7907.001910115186
 20
801.8774916440642
 30
0.0
 11
8038.718006301323
 21
866.9030408417356
 31
0.0
  0
LINE
  5
F2E
330
1F
100
AcDbEntity
  8
图层1
100
AcDbLine
 10
7911.762881668751
 20
817.7374064533115
 30
0.0
 11
7946.675556642354
 21
659.1384033898694
 31
0.0
  0
LINE
  5
F2F
330
1F
100
AcDbEntity
  8
图层1
100
AcDbLine
 10
7929.219219155611
 20
662.3104733690024
 30
0.0
 11
8100.608543211595
 21
705.132112827986
 31
0.0
  0
LINE
  5
F30
330
1F
100
AcDbEntity
  8
图层1
100
AcDbLine
 10
8075.21760201658
 20
682.9283481180945
 30
0.0
 11
8077.202665912222
 21
788.2894530337844
 31
0.0
  0
LINE
  5
F31
330
1F
100
AcDbEntity
  8
图层1
100
AcDbLine
 10
8089.500098020073
 20
778.08769194465
 30
0.0
 11
7919.697485376966
 21
730.5079475169813
 31
0.0
  0
LINE
  5
F32
330
1F
100
AcDbEntity
  8
图层1
100
AcDbLine
 10
8063.956765544196
 20
769.1291177548018
 30
0.0
 11
8166.79199274152
 21
816.3494808086589
 31
0.0
  0
LINE
  5
F33
330
1F
100
AcDbEntity
  8
图层1
100
AcDbLine
 10
8040.849390945981
 20
1224.346829857536
 30
0.0
 11
8152.646816353721
 21
786.2924064165317
 31
0.0
  0
LINE
  5
F34
330
1F
100
AcDbEntity
  8
图层1
100
AcDbLine
 10
7936.150091831457
 20
1016.847450086386
 30
0.0
 11
8101.184406417017
 21
1059.411373362415
 31
0.0
  0
LINE
  5
F35
330
1F
100
AcDbEntity
  8
图层1
100
AcDbLine
 10
8260.895073950468
 20
935.2664279403297
 30
0.0
 11
8363.819684495279
 21
589.4340799787796
 31
0.0
  0
LINE
  5
F36
330
1F
100
AcDbEntity
  8
图层1
100
AcDbLine
 10
8340.75040771725
 20
614.2630110516956
 30
0.0
 11
8436.576682640126
 21
631.9980032548237
 31
0.0
  0
LINE
  5
F37
330
1F
100
AcDbEntity
  8
图层1
100
AcDbLine
 10
8415.281885103324
 20
640.8654993563877
 30
0.0
 11
8447.223976744282
 21
559.2844772103462
 31
0.0
  0
LINE
  5
F38
330
1F
100
AcDbEntity
  8
图层1
100
AcDbLine
 10
8287.513518539434
 20
786.2924064165317
 30
0.0
 11
8438.351161881293
 21
832.403444156259
 31
0.0
  0
LINE
  5
F39
330
1F
100
AcDbEntity
  8
图层1
100
AcDbLine
 10
8133.126498057974
 20
827.0829174895524
 30
0.0
 11
8218.305478876807
 21
850.138436359416
 31
0.0
  0
LINE
  5
F3A
330
1F
100
AcDbEntity
  8
图层1
100
AcDbLine
 10
8188.137866476902
 20
850.138436359416
 30
0.0
 11
8319.455610180392
 21
784.5189942135085
 31
0.0
  0
LINE
  5
F3B
330
1F
100
AcDbEntity
  8
图层1
100
AcDbLine
 10
8581.131325578319
 20
789.192982476442
 30
0.0
 11
8558.44386431703
 21
947.910329043113
 31
0.0
  0
LINE
  5
F3C
330
1F
100
AcDbEntity
  8
图层1
100
AcDbLine
 10
8549.936118676329
 20
919.5679301888349
 30
0.0
 11
9493.887275214891
 21
1175.484450696186
 31
0.0
  0
LINE
  5
F3D
330
1F
100
AcDbEntity
  8
图层1
100
AcDbLine
 10
8955.816479455274
 20
774.9610159808553
 30
0.0
 11
8811.183756918648
 21
1211.433755296389
 31
0.0
  0
LINE
  5
F3E
330
1F
100
AcDbEntity
  8
图层1
100
AcDbLine
 10
9063.647335659307
 20
258.2106283718068
 30
0.0
 11
8936.907819569695
 21
846.2123616335347
 31
0.0
  0
LINE
  5
F3F
330
1F
100
AcDbEntity
  8
图层1
100
AcDbLine
 10
7695.483021661523
 20
1102.453311573151
 30
0.0
 11
7727.573945995712
 21
990.8994767695448
 31
0.0
  0
LINE
  5
F40
330
1F
100
AcDbEntity
  8
图层1
100
AcDbLine
 10
7717.807088329981
 20
929.5448966333252
 30
0.0
 11
7723.388209661412
 21
1035.521068702514
 31
0.0
  0
LINE
  5
F41
330
1F
100
AcDbEntity
  8
图层1
100
AcDbLine
 10
7473.63690265926
 20
982.5329101535217
 30
0.0
 11
7590.838566661755
 21
850.0627313242485
 31
0.0
  0
LINE
  5
F42
330
1F
100
AcDbEntity
  8
图层1
100
AcDbLine
 10
7663.392097327335
 20
923.9670888701267
 30
0.0
 11
7564.328763659055
 21
852.8516352058696
 31
0.0
  0
LINE
  5
F43
330
1F
100
AcDbEntity
  8
图层1
100
AcDbLine
 10
7635.486909327389
 20
914.2062153420747
 30
0.0
 11
7699.668757995766
 21
893.2898713163931
 31
0.0
  0
LINE
  5
F44
330
1F
100
AcDbEntity
  8
图层1
100
AcDbLine
 10
8739.222207767019
 20
371.7583191589848
 30
0.0
 11
8881.750549059013
 21
476.6121133217575
 31
0.0
  0
LINE
  5
F45
330
1F
100
AcDbEntity
  8
图层1
100
AcDbLine
 10
8701.610448761902
 20
231.2935725933831
 30
0.0
 11
8770.89510272234
 21
415.2824781396967
 31
0.0
  0
LINE
  5
F46
330
1F
100
AcDbEntity
  8
图层1
100
AcDbLine
 10
8772.874724072289
 20
373.7366570606583
 30
0.0
 11
8675.876208527714
 21
450.8932855137145
 31
0.0
  0
LINE
  5
F47
330
1F
100
AcDbEntity
  8
图层1
100
AcDbLine
 10
8715.467379553944
 20
437.0446301444363
 30
0.0
 11
8658.060244364376
 21
363.8448225235234
 31
0.0
  0
LINE
  5
F48
330
1F
100
AcDbEntity
  8
图层1
100
AcDbLine
 10
8565.020762190981
 20
371.7583191589848
 30
0.0
 11
8685.774105948572
 21
375.7149949623027
 31
0.0
  0
LINE
  5
F49
330
1F
100
AcDbEntity
  8
图层1
100
AcDbLine
 10
8600.652899846146
 20
365.823160425197
 30
0.0
 11
8543.245764656576
 21
551.7904038731694
 31
0.0
  0
LINE
  5
F4A
330
1F
100
AcDbEntity
  8
图层1
100
AcDbLine
 10
8572.939038261948
 20
533.9850727005587
 30
0.0
 11
8665.9785204354
 21
559.7039005086307
 31
0.0
  0
LINE
  5
F4B
330
1F
100
AcDbEntity
  8
图层1
100
AcDbLine
 10
8658.060244364376
 20
565.6390592424477
 30
0.0
 11
8656.080623014483
 21
508.2662448924575
 31
0.0
  0
LINE
  5
F4C
330
1F
100
AcDbEntity
  8
图层1
100
AcDbLine
 10
8648.162346943516
 20
533.9850727005587
 30
0.0
 11
8694.844317759098
 21
427.2415532347123
 31
0.0
  0
LINE
  5
F4D
330
1F
100
AcDbEntity
  8
图层1
100
AcDbLine
 10
8536.300448301542
 20
545.5891172858582
 30
0.0
 11
8597.956327758849
 21
532.8741520695957
 31
0.0
  0
LINE
  5
F4E
330
1F
100
AcDbEntity
  8
图层1
100
AcDbLine
 10
9047.584499211577
 20
112.037983206702
 30
0.0
 11
9058.506013889624
 21
302.2709588371845
 31
0.0
  0
LINE
  5
F4F
330
1F
100
AcDbEntity
  8
图层1
100
AcDbLine
 10
9577.488755082772
 20
629.6496968767359
 30
0.0
 11
9491.8046641532
 21
1119.670841007221
 31
0.0
  0
LINE
  5
F50
330
1F
100
AcDbEntity
  8
图层1
100
AcDbLine
 10
9644.281141749992
 20
1174.301305721358
 30
0.0
 11
9688.944974738117
 21
956.0750155653849
 31
0.0
  0
LINE
  5
F51
330
1F
100
AcDbEntity
  8
图层1
100
AcDbLine
 10
10241.04079222178
 20
1303.346774396651
 30
0.0
 11
10057.86751931597
 21
1298.399116782461
 31
0.0
  0
LINE
  5
F52
330
1F
100
AcDbEntity
  8
图层1
100
AcDbLine
 10
10273.22005325992
 20
1241.500981704715
 30
0.0
 11
10062.81814265589
 21
1231.60552144751
 31
0.0
  0
LINE
  5
F53
330
1F
100
AcDbEntity
  8
图层1
100
AcDbLine
 10
10104.64724662626
 20
1674.266639786879
 30
0.0
 11
10188.0856594505
 21
1550.728349847694
 31
0.0
  0
LINE
  5
F54
330
1F
100
AcDbEntity
  8
图层1
100
AcDbLine
 10
10268.43354360707
 20
1660.368529595759
 30
0.0
 11
10140.18581436039
 21
1590.878268697885
 31
0.0
  0
LINE
  5
F55
330
1F
100
AcDbEntity
  8
图层1
100
AcDbLine
 10
10288.52051464619
 20
1604.776378889005
 30
0.0
 11
10161.81784040469
 21
1552.272616541993
 31
0.0
  0
LINE
  5
F56
330
1F
100
AcDbEntity
  8
图层1
100
AcDbLine
 10
10260.70784992393
 20
1671.178251427064
 30
0.0
 11
10268.43354360707
 21
1575.436036841308
 31
0.0
  0
LINE
  5
F57
330
1F
100
AcDbEntity
  8
图层1
100
AcDbLine
 10
8738.401848660492
 20
2522.136058264737
 30
0.0
 11
8959.676500359668
 21
2602.707389884342
 31
0.0
  0
LINE
  5
F58
330
1F
100
AcDbEntity
  8
图层1
100
AcDbLine
 10
8793.291597114993
 20
2784.421228598051
 30
0.0
 11
8882.487804678619
 21
2702.13565652703
 31
0.0
  0
LINE
  5
F59
330
1F
100
AcDbEntity
  8
图层1
100
AcDbLine
 10
8867.050023676712
 20
2724.421362510611
 30
0.0
 11
8908.217439681875
 21
2633.564443153756
 31
0.0
  0
LINE
  5
F5A
330
1F
100
AcDbEntity
  8
图层1
100
AcDbLine
 10
8884.203043902644
 20
2657.564389588694
 30
0.0
 11
8942.523480133738
 21
2623.278710387666
 31
0.0
  0
LINE
  5
F5B
330
1F
100
AcDbEntity
  8
图层1
100
AcDbLine
 10
8925.370459907806
 20
2643.85003089102
 30
0.0
 11
8942.523480133738
 21
2582.135924352178
 31
0.0
  0
LINE
  5
F5C
330
1F
100
AcDbEntity
  8
图层1
100
AcDbLine
 10
9213.65122285893
 20
2482.493305138623
 30
0.0
 11
9266.825732089406
 21
2360.779332512354
 31
0.0
  0
LINE
  5
F5D
330
1F
100
AcDbEntity
  8
图层1
100
AcDbLine
 10
9261.679805088791
 20
2400.20773306766
 30
0.0
 11
9215.366462082952
 21
2237.35111943464
 31
0.0
  0
LINE
  5
F5E
330
1F
100
AcDbEntity
  8
图层1
100
AcDbLine
 10
9241.096097086151
 20
2427.636305434212
 30
0.0
 11
9153.61533807521
 21
2384.779278947336
 31
0.0
  0
LINE
  5
F5F
330
1F
100
AcDbEntity
  8
图层1
100
AcDbLine
 10
9157.046025851801
 20
2405.350599450675
 30
0.0
 11
9162.191952852476
 21
2281.922386372976
 31
0.0
  0
LINE
  5
F60
330
1F
100
AcDbEntity
  8
图层1
100
AcDbLine
 10
9059.273412839512
 20
2451.636251869209
 30
0.0
 11
9177.629733854441
 21
2379.636412564306
 31
0.0
  0
LINE
  5
F61
330
1F
100
AcDbEntity
  8
图层1
100
AcDbLine
 10
6471.060108670558
 20
681.0068615072277
 30
0.0
 11
6695.295505254297
 21
516.3060616153424
 31
0.0
  0
LINE
  5
F62
330
1F
100
AcDbEntity
  8
图层1
100
AcDbLine
 10
6557.512435864658
 20
605.4065371391089
 30
0.0
 11
6700.698906534293
 21
751.207328453388
 31
0.0
  0
LINE
  5
F67
330
1F
100
AcDbEntity
  8
图层1
100
AcDbLine
 10
2662.549376072422
 20
3740.519261484432
 30
0.0
 11
2607.632205147705
 21
3418.386795364442
 31
0.0
  0
LINE
  5
F68
330
1F
100
AcDbEntity
  8
图层1
100
AcDbLine
 10
2457.206589190524
 20
3723.816149214579
 30
0.0
 11
2688.814330577037
 21
3704.726733020236
 31
0.0
  0
LINE
  5
F69
330
1F
100
AcDbEntity
  8
图层1
100
AcDbLine
 10
2483.471332302086
 20
3657.003410077586
 30
0.0
 11
2679.263380377264
 21
3649.844933390535
 31
0.0
  0
LINE
  5
F6A
330
1F
100
AcDbEntity
  8
图层1
100
AcDbLine
 10
2564.653457731359
 20
3609.28008713498
 30
0.0
 11
2715.079073688541
 21
3594.96313376082
 31
0.0
  0
LINE
  5
F6B
330
1F
100
AcDbEntity
  8
图层1
100
AcDbLine
 10
2808.199622626302
 20
3690.40977964609
 30
0.0
 11
2762.833190508305
 21
3404.06984199031
 31
0.0
  0
LINE
  5
F6C
330
1F
100
AcDbEntity
  8
图层1
100
AcDbLine
 10
2435.717215482322
 20
3678.478985167637
 30
0.0
 11
2387.963098662616
 21
3432.703748738602
 31
0.0
  0
LINE
  5
F6D
330
1F
100
AcDbEntity
  8
图层1
100
AcDbLine
 10
9356.846751845386
 20
4443.272569626982
 30
0.0
 11
9451.78443559463
 21
4238.539179186544
 31
0.0
  0
LINE
  5
F6E
330
1F
100
AcDbEntity
  8
图层1
100
AcDbLine
 10
9464.276286154698
 20
4305.95146739511
 30
0.0
 11
9351.850053899982
 21
4121.192023818487
 31
0.0
  0
LINE
  5
F6F
330
1F
100
AcDbEntity
  8
图层1
100
AcDbLine
 10
7459.401388558617
 20
6360.066918627567
 30
0.0
 11
7510.564007204783
 21
6265.554693319985
 31
0.0
  0
LINE
  5
F70
330
1F
100
AcDbEntity
  8
图层1
100
AcDbLine
 10
7632.326625695394
 20
6217.999168702391
 30
0.0
 11
7858.263113856899
 21
6226.683493425798
 31
0.0
  0
LINE
  5
F71
330
1F
100
AcDbEntity
  8
图层1
100
AcDbLine
 10
7575.359787584516
 20
6276.859108398309
 30
0.0
 11
7651.637382446033
 21
6208.350112381483
 31
0.0
  0
LINE
  5
F72
330
1F
100
AcDbEntity
  8
图层1
100
AcDbLine
 10
7642.463980265429
 20
6144.943374682848
 30
0.0
 11
7604.625678080717
 21
6040.144691465238
 31
0.0
  0
LINE
  5
F73
330
1F
100
AcDbEntity
  8
图层1
100
AcDbLine
 10
7448.185717949296
 20
6150.883609424772
 30
0.0
 11
7514.142891843921
 21
6242.857395593503
 31
0.0
  0
LINE
  5
F74
330
1F
100
AcDbEntity
  8
图层1
100
AcDbLine
 10
7512.609023743427
 20
6216.798185184806
 30
0.0
 11
7486.532843248454
 21
6258.186359954973
 31
0.0
  0
LINE
  5
F75
330
1F
100
AcDbEntity
  8
图层1
100
AcDbLine
 10
7509.541076149327
 20
6301.10748917281
 30
0.0
 11
7489.600579449501
 21
6239.79163172699
 31
0.0
  0
LINE
  5
F76
330
1F
100
AcDbEntity
  8
图层1
100
AcDbLine
 10
7488.066711348948
 20
6224.46266736552
 30
0.0
 11
7577.032118144504
 21
6233.65995896512
 31
0.0
  0
LINE
  5
F77
330
1F
100
AcDbEntity
  8
图层1
100
AcDbLine
 10
7550.956149042585
 20
6248.989068355372
 30
0.0
 11
7635.319951536541
 21
6170.811292100441
 31
0.0
  0
LINE
  5
F78
330
1F
100
AcDbEntity
  8
图层1
100
AcDbLine
 10
7621.514927238809
 20
6196.870502509167
 30
0.0
 11
7641.455423938634
 21
6101.830807445081
 31
0.0
  0
LINE
  5
F79
330
1F
100
AcDbEntity
  8
图层1
100
AcDbLine
 10
7600.040562438429
 20
6278.114042630613
 30
0.0
 11
7561.693225746218
 21
6225.995476784408
 31
0.0
  0
LINE
  5
F7A
330
1F
100
AcDbEntity
  8
图层1
100
AcDbLine
 10
7309.231769606647
 20
1949.569015361853
 30
0.0
 11
7343.076856739179
 21
1878.847749984158
 31
0.0
  0
LINE
  5
F7B
330
1F
100
AcDbEntity
  8
图层1
100
AcDbLine
 10
7060.509011265532
 20
1851.385530935256
 30
0.0
 11
7234.445764232079
 21
1916.143647020192
 31
0.0
  0
LINE
  5
F7C
330
1F
100
AcDbEntity
  8
图层1
100
AcDbLine
 10
8148.696472600104
 20
2658.198745573031
 30
0.0
 11
8206.624937776769
 21
2493.102017048984
 31
0.0
  0
LINE
  5
F7D
330
1F
100
AcDbEntity
  8
图层1
100
AcDbLine
 10
8034.985181885772
 20
2671.063525542767
 30
0.0
 11
8170.151600631305
 21
2638.90179316163
 31
0.0
  0
LINE
  5
F7E
330
1F
100
AcDbEntity
  8
图层1
100
AcDbLine
 10
8032.83954224689
 20
2722.522210335379
 30
0.0
 11
8058.585526769808
 21
2641.045898985093
 31
0.0
  0
LINE
  5
F7F
330
1F
100
AcDbEntity
  8
图层1
100
AcDbLine
 10
7991.129364630849
 20
3187.468889629487
 30
0.0
 11
8138.739647710057
 21
2840.980141305602
 31
0.0
  0
LINE
  5
F80
330
1F
100
AcDbEntity
  8
图层1
100
AcDbLine
 10
8166.56975648919
 20
3257.029344468033
 30
0.0
 11
8420.247568341322
 21
2927.334641473431
 31
0.0
  0
LINE
  5
F81
330
1F
100
AcDbEntity
  8
图层1
100
AcDbLine
 10
6332.741784936109
 20
9825.305082401252
 30
0.0
 11
6386.653419686541
 21
9747.943602008707
 31
0.0
  0
LINE
  5
F82
330
1F
100
AcDbEntity
  8
图层1
100
AcDbLine
 10
6262.242070420763
 20
9859.841517205007
 30
0.0
 11
6305.094913801355
 21
9807.346159532498
 31
0.0
  0
LINE
  5
F83
330
1F
100
AcDbEntity
  8
图层1
100
AcDbLine
 10
6360.388656070864
 20
9805.964748598698
 30
0.0
 11
6282.977331061673
 21
9821.160704417509
 31
0.0
  0
LINE
  5
F84
330
1F
100
AcDbEntity
  8
图层1
100
AcDbLine
 10
6309.24188009766
 20
9823.923671467497
 30
0.0
 11
6220.771549138998
 21
9765.902524877461
 31
0.0
  0
LINE
  5
F85
330
1F
100
AcDbEntity
  8
图层1
100
AcDbLine
 10
6240.124487681141
 20
9840.501038220018
 30
0.0
 11
6230.448018410069
 21
9760.376735959937
 31
0.0
  0
LINE
  5
F86
330
1F
100
AcDbEntity
  8
图层1
100
AcDbLine
 10
6281.595008962905
 20
9863.985750006285
 30
0.0
 11
6226.301052113763
 21
9817.016326433781
 31
0.0
  0
LINE
  5
F87
330
1F
100
AcDbEntity
  8
图层1
100
AcDbLine
 10
8914.123804106262
 20
10203.05469700229
 30
0.0
 11
9104.726752274672
 21
9626.324125326753
 31
0.0
  0
LINE
  5
F88
330
1F
100
AcDbEntity
  8
图层1
100
AcDbLine
 10
8627.426939210042
 20
10050.86618610374
 30
0.0
 11
8083.695198035917
 21
9477.988466068788
 31
0.0
  0
LINE
  5
F89
330
1F
100
AcDbEntity
  8
图层1
100
AcDbLine
 10
8522.539763046314
 20
10071.2781115092
 30
0.0
 11
7996.23682470189
 21
9512.308433851858
 31
0.0
  0
LINE
  5
F8A
330
1F
100
AcDbEntity
  8
图层1
100
AcDbLine
 10
7693.664713634645
 20
9351.274392321464
 30
0.0
 11
8141.026159492962
 21
9529.519086415522
 31
0.0
  0
LINE
  5
F8B
330
1F
100
AcDbEntity
  8
图层1
100
AcDbLine
 10
7576.707432215394
 20
9338.125218567283
 30
0.0
 11
7756.529255079688
 21
9368.806623993796
 31
0.0
  0
LINE
  5
F8C
330
1F
100
AcDbEntity
  8
图层1
100
AcDbLine
 10
7651.618689734198
 20
9356.479037677729
 30
0.0
 11
7798.943068498397
 21
9455.654179951386
 31
0.0
  0
LINE
  5
F8D
330
1F
100
AcDbEntity
  8
图层1
100
AcDbLine
 10
7759.409128548753
 20
9434.540297439779
 30
0.0
 11
8075.033261345293
 21
9564.116207479985
 31
0.0
  0
LINE
  5
F8E
330
1F
100
AcDbEntity
  8
图层1
100
AcDbLine
 10
9550.225003040862
 20
9884.771955746757
 30
0.0
 11
9431.147460109963
 21
9813.850042560449
 31
0.0
  0
LINE
  5
F8F
330
1F
100
AcDbEntity
  8
图层1
100
AcDbLine
 10
9394.764407726006
 20
9950.691172353376
 30
0.0
 11
9459.590850901733
 21
9811.359873318615
 31
0.0
  0
LINE
  5
F90
330
1F
100
AcDbEntity
  8
图层1
100
AcDbLine
 10
6344.098198279099
 20
9003.650134394897
 30
0.0
 11
6422.571692550788
 21
8972.809754194566
 31
0.0
  0
LINE
  5
F91
330
1F
100
AcDbEntity
  8
图层1
100
AcDbLine
 10
6030.860620338645
 20
9013.34817632498
 30
0.0
 11
6372.969675470669
 21
8999.249654583813
 31
0.0
  0
LINE
  5
F92
330
1F
100
AcDbEntity
  8
图层1
100
AcDbLine
 10
5881.034028287571
 20
8942.764247863181
 30
0.0
 11
6084.045902977233
 21
9020.369054028172
 31
0.0
  0
LINE
  5
F93
330
1F
100
AcDbEntity
  8
图层1
100
AcDbLine
 10
5861.065460732557
 20
8907.287901931201
 30
0.0
 11
5935.392203287513
 21
8970.480301915847
 31
0.0
  0
LINE
  5
F94
330
1F
100
AcDbEntity
  8
图层1
100
AcDbLine
 10
2437.007487446362
 20
10104.44155596083
 30
0.0
 11
2655.02019623737
 21
9906.800632824195
 31
0.0
  0
LINE
  5
F95
330
1F
100
AcDbEntity
  8
图层1
100
AcDbLine
 10
8856.196664162389
 20
7079.248738061176
 30
0.0
 11
8824.542786113513
 21
6986.266643207582
 31
0.0
  0
LINE
  5
F96
330
1F
100
AcDbEntity
  8
图层1
100
AcDbLine
 10
8818.956651785471
 20
7012.301629766608
 30
0.0
 11
9109.428445533676
 21
6913.740609221733
 31
0.0
  0
LINE
  5
F97
330
1F
100
AcDbEntity
  8
图层1
100
AcDbLine
 10
9137.358360193905
 20
6984.407001310528
 30
0.0
 11
9083.360701812898
 21
6910.021325427621
 31
0.0
  0
LINE
  5
F98
330
1F
100
AcDbEntity
  8
图层1
100
AcDbLine
 10
9031.224457391074
 20
7029.038406840253
 30
0.0
 11
8997.708408402806
 21
6930.477386295422
 31
0.0
  0
LINE
  5
F99
330
1F
100
AcDbEntity
  8
图层1
100
AcDbLine
 10
8932.538481365716
 20
6988.126285104638
 30
0.0
 11
8897.160639928072
 21
6889.565264559836
 31
0.0
  0
LWPOLYLINE
  5
F9A
330
1F
100
AcDbEntity
  8
图层1
370
   211
100
AcDbPolyline
 90
        2
 70
     0
 43
0.0
 10
1543.876588390967
 20
1557.449065909725
 10
1530.858791315638
 20
1400.646177226042
  0
LWPOLYLINE
  5
F9B
330
1F
100
AcDbEntity
  8
图层1
370
   211
100
AcDbPolyline
 90
        2
 70
     0
 43
0.0
 10
1487.977058663325
 20
1425.122737930626
 10
1668.69264701818
 20
1417.473790330409
  0
LWPOLYLINE
  5
F9D
330
1F
100
AcDbEntity
  8
图层1
370
   211
100
AcDbPolyline
 90
        2
 70
     0
 43
0.0
 10
3852.311413013436
 20
1271.809697255497
 10
3860.261724387006
 20
707.9596883264066
  0
LWPOLYLINE
  5
F9E
330
1F
100
AcDbEntity
  8
图层1
370
   211
100
AcDbPolyline
 90
        2
 70
     0
 43
0.0
 10
3834.423212423049
 20
733.7697390765579
 10
4297.178570254881
 20
732.13044868218
  0
LWPOLYLINE
  5
F9F
330
1F
100
AcDbEntity
  8
图层1
370
   211
100
AcDbPolyline
 90
        2
 70
     0
 43
0.0
 10
4255.971637238575
 20
565.0692831926326
 10
4360.448335446011
 20
569.3071603916514
  0
LWPOLYLINE
  5
FA0
330
1F
100
AcDbEntity
  8
图层1
370
   211
100
AcDbPolyline
 90
        2
 70
     0
 43
0.0
 10
4368.683498401254
 20
355.4209431332466
 10
4023.95563545049
 20
357.7205331097985
  0
LWPOLYLINE
  5
FA1
330
1F
100
AcDbEntity
  8
图层1
370
   211
100
AcDbPolyline
 90
        2
 70
     0
 43
0.0
 10
4072.99638591608
 20
528.2765597284351
 10
3932.065068476078
 20
530.8361158093949
  0
LWPOLYLINE
  5
FA2
330
1F
100
AcDbEntity
  8
图层1
370
   211
100
AcDbPolyline
 90
        2
 70
     0
 43
0.0
 10
3943.595573259228
 20
560.2706526608135
 10
3948.720508019616
 20
381.1028012313228
  0
LWPOLYLINE
  5
FA3
330
1F
100
AcDbEntity
  8
图层1
370
   211
100
AcDbPolyline
 90
        2
 70
     0
 43
0.0
 10
3919.25313052704
 20
410.5376961627672
 10
4075.558454344458
 20
411.817474203247
  0
LWPOLYLINE
  5
FA4
330
1F
100
AcDbEntity
  8
图层1
370
   211
100
AcDbPolyline
 90
        2
 70
     0
 43
0.0
 10
4265.047790578043
 20
2804.989519051397
 10
4045.837343510183
 20
2940.993328976799
  0
LWPOLYLINE
  5
FA5
330
1F
100
AcDbEntity
  8
图层1
370
   211
100
AcDbPolyline
 90
        2
 70
     0
 43
0.0
 10
4011.798776348995
 20
3082.437448854388
 10
4321.454786989082
 20
2875.044654927396
  0
LWPOLYLINE
  5
FA6
330
1F
100
AcDbEntity
  8
图层1
370
   211
100
AcDbPolyline
 90
        2
 70
     0
 43
0.0
 10
4126.169479075762
 20
3015.795531859743
 10
3886.535891711306
 20
2713.8667443918
  0
LWPOLYLINE
  5
FA7
330
1F
100
AcDbEntity
  8
图层1
370
   211
100
AcDbPolyline
 90
        2
 70
     0
 43
0.0
 10
3860.666261507258
 20
2765.548077577788
 10
3947.806110505074
 20
2666.265375109918
  0
LWPOLYLINE
  5
FA8
330
1F
100
AcDbEntity
  8
图层1
370
   211
100
AcDbPolyline
 90
        2
 70
     0
 43
0.0
 10
3913.766745440256
 20
2652.665137349341
 10
4022.690958259803
 20
2785.948971338633
  0
LWPOLYLINE
  5
FA9
330
1F
100
AcDbEntity
  8
图层1
370
   211
100
AcDbPolyline
 90
        2
 70
     0
 43
0.0
 10
4168.376983194321
 20
2654.025125317397
 10
3906.959032008018
 20
2826.750042700272
  0
LWPOLYLINE
  5
FAA
330
1F
100
AcDbEntity
  8
图层1
370
   211
100
AcDbPolyline
 90
        2
 70
     0
 43
0.0
 10
4015.883244827565
 20
2709.786780487634
 10
4156.123577758379
 20
2915.152483343734
  0
LWPOLYLINE
  5
FAB
330
1F
100
AcDbEntity
  8
图层1
370
   211
100
AcDbPolyline
 90
        2
 70
     0
 43
0.0
 10
4021.004190070033
 20
2938.747092925308
 10
4098.740745256365
 20
2881.285631835058
  0
LWPOLYLINE
  5
FAC
330
1F
100
AcDbEntity
  8
图层1
370
   211
100
AcDbPolyline
 90
        2
 70
     0
 43
0.0
 10
4098.222905826348
 20
2895.780353519779
 10
4010.274780491543
 20
2741.125586958316
  0
LWPOLYLINE
  5
FAD
330
1F
100
AcDbEntity
  8
图层1
370
   211
100
AcDbPolyline
 90
        2
 70
     0
 43
0.0
 10
4009.965193898477
 20
2916.293684411217
 10
4091.276357169323
 20
2860.239835933496
  0
LWPOLYLINE
  5
FAE
330
1F
100
AcDbEntity
  8
图层1
370
   211
100
AcDbPolyline
 90
        2
 70
     0
 43
0.0
 10
3992.786329599855
 20
2877.399031149112
 10
4070.089623136738
 20
2825.348875528323
  0
LWPOLYLINE
  5
FAF
330
1F
100
AcDbEntity
  8
图层1
370
   211
100
AcDbPolyline
 90
        2
 70
     0
 43
0.0
 10
4105.874801257102
 20
2859.395125133922
 10
4187.492359506608
 20
2810.100395372608
  0
LWPOLYLINE
  5
FB0
330
1F
100
AcDbEntity
  8
图层1
370
   211
100
AcDbPolyline
 90
        2
 70
     0
 43
0.0
 10
4184.961409318203
 20
2835.379771512763
 10
4124.855331862637
 20
2731.733863834064
  0
LWPOLYLINE
  5
FB1
330
1F
100
AcDbEntity
  8
图层1
370
   211
100
AcDbPolyline
 90
        2
 70
     0
 43
0.0
 10
4155.225138315757
 20
2736.789595830084
 10
4083.73058291612
 20
2779.132917896907
  0
LWPOLYLINE
  5
FB2
330
1F
100
AcDbEntity
  8
图层1
370
   211
100
AcDbPolyline
 90
        2
 70
     0
 43
0.0
 10
4086.894270651567
 20
2758.277262493216
 10
4140.67297263624
 20
2854.3393931379
  0
LWPOLYLINE
  5
FB3
330
1F
100
AcDbEntity
  8
图层1
370
   211
100
AcDbPolyline
 90
        2
 70
     0
 43
0.0
 10
4123.590654672066
 20
2792.404796266526
 10
4080.559714048345
 20
2819.295532558409
  0
LWPOLYLINE
  5
FB4
330
1F
100
AcDbEntity
  8
图层1
370
   211
100
AcDbPolyline
 90
        2
 70
     0
 43
0.0
 10
7086.688619141992
 20
2451.627905940816
 10
7180.378458712425
 20
2991.320761555345
  0
LWPOLYLINE
  5
FB5
330
1F
100
AcDbEntity
  8
图层1
370
   211
100
AcDbPolyline
 90
        2
 70
     0
 43
0.0
 10
3573.286921204128
 20
3871.284540408004
 10
3590.998785101053
 20
4103.373756180231
  0
LWPOLYLINE
  5
FB6
330
1F
100
AcDbEntity
  8
图层1
370
   211
100
AcDbPolyline
 90
        2
 70
     0
 43
0.0
 10
3872.317249732501
 20
3939.974675195471
 10
3883.778336903257
 20
4095.047679236338
  0
LWPOLYLINE
  5
FB7
330
1F
100
AcDbEntity
  8
图层1
370
   211
100
AcDbPolyline
 90
        2
 70
     0
 43
0.0
 10
3950.460735749979
 20
4055.498813752613
 10
3673.310519474153
 20
4111.699833124182
  0
LWPOLYLINE
  5
FB8
330
1F
100
AcDbEntity
  8
图层1
370
   211
100
AcDbPolyline
 90
        2
 70
     0
 43
0.0
 10
3728.532629053634
 20
4133.55596414203
 10
3699.761023491797
 20
3942.984337878826
  0
LWPOLYLINE
  5
FB9
330
1F
100
AcDbEntity
  8
图层1
370
   211
100
AcDbPolyline
 90
        2
 70
     0
 43
0.0
 10
3197.076176291741
 20
3946.627802221924
 10
3264.807818359638
 20
4774.497381609636
  0
LWPOLYLINE
  5
FBA
330
1F
100
AcDbEntity
  8
图层1
370
   211
100
AcDbPolyline
 90
        2
 70
     0
 43
0.0
 10
3203.34530480049
 20
4723.126145732768
 10
3381.462121161808
 20
4726.885269926749
  0
LWPOLYLINE
  5
FBB
330
1F
100
AcDbEntity
  8
图层1
370
   211
100
AcDbPolyline
 90
        2
 70
     0
 43
0.0
 10
5726.392258100037
 20
5446.026353637169
 10
5445.046664746538
 20
5134.536113108921
  0
LWPOLYLINE
  5
FBC
330
1F
100
AcDbEntity
  8
图层1
370
   211
100
AcDbPolyline
 90
        2
 70
     0
 43
0.0
 10
2616.630836797472
 20
4523.943052738792
 10
2198.554888406712
 20
4521.733340850745
  0
LWPOLYLINE
  5
FBD
330
1F
100
AcDbEntity
  8
图层1
370
   211
100
AcDbPolyline
 90
        2
 70
     0
 43
0.0
 10
2535.167273940811
 20
4326.422883421361
 10
2648.248564465846
 20
4334.124468786472
  0
LWPOLYLINE
  5
FBE
330
1F
100
AcDbEntity
  8
图层1
370
   211
100
AcDbPolyline
 90
        2
 70
     0
 43
0.0
 10
2648.248564465846
 20
4292.194012998549
 10
2632.82827968005
 20
4406.860907954984
  0
LWPOLYLINE
  5
FBF
330
1F
100
AcDbEntity
  8
图层1
370
   211
100
AcDbPolyline
 90
        2
 70
     0
 43
0.0
 10
2186.767458667572
 20
5303.389469167222
 10
2664.710113436858
 20
5316.505224642174
  0
LWPOLYLINE
  5
FC0
330
1F
100
AcDbEntity
  8
图层1
370
   211
100
AcDbPolyline
 90
        2
 70
     0
 43
0.0
 10
2174.772573994998
 20
9470.149821409554
 10
2850.314457089234
 20
9462.954905161232
  0
LWPOLYLINE
  5
FC1
330
1F
100
AcDbEntity
  8
图层1
370
   211
100
AcDbPolyline
 90
        2
 70
     0
 43
0.0
 10
4854.576464543993
 20
5350.024589963029
 10
4785.178001876048
 20
6449.004324065583
  0
LWPOLYLINE
  5
FC2
330
1F
100
AcDbEntity
  8
图层1
370
   211
100
AcDbPolyline
 90
        2
 70
     0
 43
0.0
 10
4747.008687827912
 20
6290.604842194884
 10
4947.336746431713
 20
6599.848896853863
  0
LWPOLYLINE
  5
FC3
330
1F
100
AcDbEntity
  8
图层1
370
   211
100
AcDbPolyline
 90
        2
 70
     0
 43
0.0
 10
4613.146796197689
 20
6626.858569632929
 10
4465.787671892031
 20
5355.070418158201
  0
LWPOLYLINE
  5
FC4
330
1F
100
AcDbEntity
  8
图层1
370
   211
100
AcDbPolyline
 90
        2
 70
     0
 43
0.0
 10
3933.931874906704
 20
5716.4968738035
 10
4914.683339903191
 20
5574.621253663911
  0
LWPOLYLINE
  5
FC5
330
1F
100
AcDbEntity
  8
图层1
370
   211
100
AcDbPolyline
 90
        2
 70
     0
 43
0.0
 10
4258.806588694862
 20
6199.465064462454
 10
4938.390651377559
 20
6029.493772682505
  0
LWPOLYLINE
  5
FC6
330
1F
100
AcDbEntity
  8
图层1
370
   211
100
AcDbPolyline
 90
        2
 70
     0
 43
0.0
 10
5209.0586988859
 20
6296.300831281584
 10
4162.84352179576
 20
6469.867769693786
  0
LWPOLYLINE
  5
FC7
330
1F
100
AcDbEntity
  8
图层1
370
   211
100
AcDbPolyline
 90
        3
 70
     0
 43
0.0
 10
3918.434481443431
 20
9850.152394365816
 10
3754.432579594142
 20
10366.09162094596
 10
3831.199681918313
 20
10868.08664202347
  0
LWPOLYLINE
  5
FC8
330
1F
100
AcDbEntity
  8
图层1
370
   211
100
AcDbPolyline
 90
        2
 70
     0
 43
0.0
 10
7978.511845224247
 20
7460.488625990639
 10
8152.898462300946
 20
7530.203038064943
  0
LWPOLYLINE
  5
FC9
330
1F
100
AcDbEntity
  8
图层1
370
   211
100
AcDbPolyline
 90
        2
 70
     0
 43
0.0
 10
8080.819043569675
 20
7630.126676651769
 10
8201.726970411664
 20
7711.460157405181
  0
LWPOLYLINE
  5
FCA
330
1F
100
AcDbEntity
  8
图层1
370
   211
100
AcDbPolyline
 90
        2
 70
     0
 43
0.0
 10
8183.125444011473
 20
7688.222020047081
 10
8283.107551294904
 20
7925.250933086445
  0
LWPOLYLINE
  5
FCB
330
1F
100
AcDbEntity
  8
图层1
370
   211
100
AcDbPolyline
 90
        2
 70
     0
 43
0.0
 10
8199.401879349551
 20
8064.679757235053
 10
8287.757733419015
 20
7890.393727049294
  0
LWPOLYLINE
  5
FCC
330
1F
100
AcDbEntity
  8
图层1
370
   211
100
AcDbPolyline
 90
        2
 70
     0
 43
0.0
 10
8441.217733033527
 20
7783.49855924177
 10
8662.107767158829
 20
7976.37474726106
  0
LWPOLYLINE
  5
FCD
330
1F
100
AcDbEntity
  8
图层1
370
   211
100
AcDbPolyline
 90
        2
 70
     0
 43
0.0
 10
8385.721144618992
 20
8786.486949790042
 10
8470.348395210983
 20
8478.796602148685
  0
LWPOLYLINE
  5
FCE
330
1F
100
AcDbEntity
  8
图层1
370
   211
100
AcDbPolyline
 90
        2
 70
     0
 43
0.0
 10
9696.411041549817
 20
9678.219556254575
 10
9602.125167997499
 20
9583.987734290602
  0
LWPOLYLINE
  5
FCF
330
1F
100
AcDbEntity
  8
图层1
370
   211
100
AcDbPolyline
 90
        2
 70
     0
 43
0.0
 10
9609.729189212844
 20
9614.384869083478
 10
9605.16677648359
 20
9441.119792552088
  0
LWPOLYLINE
  5
FD0
330
1F
100
AcDbEntity
  8
图层1
370
   211
100
AcDbPolyline
 90
        2
 70
     0
 43
0.0
 10
9626.45723798295
 20
9479.116871142533
 10
9378.918522596286
 20
9377.964204248616
  0
LWPOLYLINE
  5
FD1
330
1F
100
AcDbEntity
  8
图层1
370
   211
100
AcDbPolyline
 90
        2
 70
     0
 43
0.0
 10
7385.951935518825
 20
6770.983174873404
 10
7540.443624475564
 20
6869.800486957193
  0
LWPOLYLINE
  5
FD2
330
1F
100
AcDbEntity
  8
图层1
370
   211
100
AcDbPolyline
 90
        2
 70
     0
 43
0.0
 10
7514.179829898001
 20
6883.696898378146
 10
7668.67151885474
 20
6729.294380676762
  0
LWPOLYLINE
  5
FD3
330
1F
100
AcDbEntity
  8
NEW 12.7
370
   211
100
AcDbPolyline
 90
        2
 70
     0
 43
0.0
 10
10861.23509912699
 20
6412.263433246121
 10
11080.91607681842
 20
6200.840645038003
  0
LWPOLYLINE
  5
FD4
330
1F
100
AcDbEntity
  8
图层1
370
   211
100
AcDbPolyline
 90
        2
 70
     0
 43
0.0
 10
8234.309312506288
 20
9882.404624624534
 10
8284.237335847052
 20
9983.398295717552
  0
LWPOLYLINE
  5
FD5
330
1F
100
AcDbEntity
  8
图层1
370
   211
100
AcDbPolyline
 90
        2
 70
     0
 43
0.0
 10
8247.253880579668
 20
9968.618712269531
 10
8384.708006372967
 20
9960.613290987332
  0
LWPOLYLINE
  5
FD6
330
1F
100
AcDbEntity
  8
图层1
370
   211
100
AcDbPolyline
 90
        2
 70
     0
 43
0.0
 10
8344.642662931411
 20
9977.240210515045
 10
8382.858554597422
 20
9895.336871992803
  0
LWPOLYLINE
  5
FD7
330
1F
100
AcDbEntity
  8
图层1
370
   211
100
AcDbPolyline
 90
        2
 70
     0
 43
0.0
 10
8241.202506257398
 20
9847.028742695233
 10
8070.381719466475
 20
9811.181743088127
  0
LWPOLYLINE
  5
FD8
330
1F
100
AcDbEntity
  8
图层1
370
   211
100
AcDbPolyline
 90
        2
 70
     0
 43
0.0
 10
8109.382033782024
 20
9852.483954325149
 10
8069.601282704331
 20
9683.379552281934
  0
LWPOLYLINE
  5
FD9
330
1F
100
AcDbEntity
  8
图层1
370
   211
100
AcDbPolyline
 90
        2
 70
     0
 43
0.0
 10
8052.441240066722
 20
9749.618787271501
 10
8162.422238041591
 20
9667.014812202666
  0
LWPOLYLINE
  5
FDA
330
1F
100
AcDbEntity
  8
图层1
370
   211
100
AcDbPolyline
 90
        2
 70
     0
 43
0.0
 10
6319.650809915446
 20
9252.33148431697
 10
6663.443168363825
 20
9252.33148431697
  0
LWPOLYLINE
  5
FDB
330
1F
100
AcDbEntity
  8
图层1
370
   211
100
AcDbPolyline
 90
        2
 70
     0
 43
0.0
 10
5773.011059037934
 20
9299.296950602851
 10
5999.100161171461
 20
9342.363280551978
  0
LWPOLYLINE
  5
FDC
330
1F
100
AcDbEntity
  8
图层1
370
   211
100
AcDbPolyline
 90
        2
 70
     0
 43
0.0
 10
5786.206738020585
 20
9257.988028287835
 10
5976.226747467126
 20
9270.293013562746
  0
ENDSEC
  0
SECTION
  2
OBJECTS
  0
DICTIONARY
  5
C
330
0
100
AcDbDictionary
281
     1
  3
ACAD_COLOR
350
6C
  3
ACAD_GROUP
350
D
  3
ACAD_LAYOUT
350
1A
  3
ACAD_MATERIAL
350
6B
  3
ACAD_MLEADERSTYLE
350
D2
  3
ACAD_MLINESTYLE
350
17
  3
ACAD_PLOTSETTINGS
350
19
  3
ACAD_PLOTSTYLENAME
350
E
  3
ACAD_SCALELIST
350
B1
  3
ACAD_TABLESTYLE
350
A6
  3
ACAD_VISUALSTYLE
350
95
  3
ACDB_RECOMPOSE_DATA
350
FA
  3
AcDbVariableDictionary
350
59
  0
DICTIONARY
  5
155
330
2
100
AcDbDictionary
280
     1
281
     1
  3
ACAD_LAYERSTATES
360
156
  0
DICTIONARY
  5
E1
330
10
100
AcDbDictionary
280
     1
281
     1
  3
ADSK_XREC_LAYER_RECONCILED
360
FDD
  0
DICTIONARY
  5
14E
330
14D
100
AcDbDictionary
280
     1
281
     1
  3
ADSK_XREC_LAYER_RECONCILED
360
FDE
  0
DICTIONARY
  5
FDF
330
14F
100
AcDbDictionary
280
     1
281
     1
  3
ADSK_XREC_LAYER_RECONCILED
360
FE0
  0
DICTIONARY
  5
6C
102
{ACAD_REACTORS
330
C
102
}
330
C
100
AcDbDictionary
281
     1
  0
DICTIONARY
  5
D
102
{ACAD_REACTORS
330
C
102
}
330
C
100
AcDbDictionary
281
     1
  0
DICTIONARY
  5
1A
102
{ACAD_REACTORS
330
C
102
}
330
C
100
AcDbDictionary
281
     1
  3
Model
350
22
  3
布局1
350
74
  3
布局2
350
79
  0
DICTIONARY
  5
6B
102
{ACAD_REACTORS
330
C
102
}
330
C
100
AcDbDictionary
281
     1
  3
ByBlock
350
93
  3
ByLayer
350
92
  3
Global
350
94
  0
DICTIONARY
  5
D2
102
{ACAD_REACTORS
330
C
102
}
330
C
100
AcDbDictionary
281
     1
  3
Annotative
350
E0
  3
Standard
350
D3
  0
DICTIONARY
  5
17
102
{ACAD_REACTORS
330
C
102
}
330
C
100
AcDbDictionary
281
     1
  3
Standard
350
18
  0
DICTIONARY
  5
19
102
{ACAD_REACTORS
330
C
102
}
330
C
100
AcDbDictionary
281
     1
  0
ACDBDICTIONARYWDFLT
  5
E
102
{ACAD_REACTORS
330
C
102
}
330
C
100
AcDbDictionary
281
     1
  3
Normal
350
F
100
AcDbDictionaryWithDefault
340
F
  0
DICTIONARY
  5
B1
102
{ACAD_REACTORS
330
C
102
}
330
C
100
AcDbDictionary
281
     1
  3
A0
350
B2
  3
A1
350
124
  3
A2
350
125
  3
A3
350
126
  3
A4
350
127
  3
A5
350
128
  3
A6
350
129
  3
A7
350
12A
  3
A8
350
12B
  3
A9
350
12C
  3
B0
350
12D
  3
B1
350
12E
  3
B2
350
12F
  3
B3
350
130
  3
B4
350
131
  3
B5
350
132
  3
B6
350
133
  3
B7
350
134
  3
B8
350
135
  3
B9
350
136
  3
C0
350
137
  3
C1
350
138
  3
C2
350
139
  3
C3
350
13A
  3
C4
350
13B
  3
C5
350
13C
  3
C6
350
13D
  3
C7
350
13E
  3
C8
350
13F
  3
C9
350
140
  3
D0
350
141
  3
D1
350
142
  3
D2
350
143
  0
DICTIONARY
  5
A6
102
{ACAD_REACTORS
330
C
102
}
330
C
100
AcDbDictionary
281
     1
  3
Standard
350
A7
  0
DICTIONARY
  5
95
102
{ACAD_REACTORS
330
C
102
}
330
C
100
AcDbDictionary
281
     1
  3
2dWireframe
350
9B
  3
3D Hidden
350
9D
  3
3dWireframe
350
9C
  3
Basic
350
9A
  3
Brighten
350
A1
  3
ColorChange
350
A5
  3
Conceptual
350
9E
  3
Dim
350
A0
  3
Facepattern
350
A4
  3
Flat
350
96
  3
FlatWithEdges
350
97
  3
Gouraud
350
98
  3
GouraudWithEdges
350
99
  3
Linepattern
350
A3
  3
Realistic
350
9F
  3
Thicken
350
A2
  0
XRECORD
  5
FA
102
{ACAD_REACTORS
330
C
102
}
330
C
100
AcDbXrecord
280
     1
 90
        1
330
A7
  0
DICTIONARY
  5
59
102
{ACAD_REACTORS
330
C
102
}
330
C
100
AcDbDictionary
281
     1
  3
CANNOSCALE
350
EB
  3
CMLEADERSTYLE
350
EA
  3
CTABLESTYLE
350
AB
  3
DIMASSOC
350
5A
  3
HIDETEXT
350
5E
  0
DICTIONARY
  5
156
102
{ACAD_REACTORS
330
155
102
}
330
155
100
AcDbDictionary
281
     1
  0
XRECORD
  5
FDD
102
{ACAD_REACTORS
330
E1
102
}
330
E1
100
AcDbXrecord
280
     1
290
     1
  0
XRECORD
  5
FDE
102
{ACAD_REACTORS
330
14E
102
}
330
14E
100
AcDbXrecord
280
     1
290
     1
  0
XRECORD
  5
FE0
102
{ACAD_REACTORS
330
FDF
102
}
330
FDF
100
AcDbXrecord
280
     1
290
     1
  0
LAYOUT
  5
22
102
{ACAD_REACTORS
330
1A
102
}
330
1A
100
AcDbPlotSettings
  1

  2
none_device
  4
Letter_(8.50_x_11.00_Inches)
  6

 40
6.349999904632568
 41
6.349999904632568
 42
6.350006103515625
 43
6.350006103515625
 44
215.8999938964844
 45
279.3999938964844
 46
0.0
 47
0.0
 48
0.0
 49
0.0
140
0.0
141
0.0
142
1.0
143
3.560208697428376
 70
 11952
 72
     0
 73
     1
 74
     0
  7

 75
     0
147
0.28088241027059
 76
     0
 77
     2
 78
   300
148
0.1311165230791651
149
0.096403374003771
100
AcDbLayout
  1
Model
 70
     1
 71
     0
 10
0.0
 20
0.0
 11
12.0
 21
9.0
 12
0.0
 22
0.0
 32
0.0
 14
0.0
 24
0.0
 34
0.0
 15
0.0
 25
0.0
 35
0.0
146
0.0
 13
0.0
 23
0.0
 33
0.0
 16
1.0
 26
0.0
 36
0.0
 17
0.0
 27
1.0
 37
0.0
 76
     0
330
1F
331
90
  0
LAYOUT
  5
74
102
{ACAD_REACTORS
330
1A
102
}
330
1A
100
AcDbPlotSettings
  1

  2
\\ADSCCNDC1\hq601xrx1
  4

  6

 40
0.0
 41
0.0
 42
0.0
 43
0.0
 44
0.0
 45
0.0
 46
0.0
 47
0.0
 48
0.0
 49
0.0
140
0.0
141
0.0
142
1.0
143
1.0
 70
   688
 72
     0
 73
     0
 74
     5
  7

 75
    16
147
1.0
 76
     0
 77
     2
 78
   300
148
0.0
149
0.0
100
AcDbLayout
  1
布局1
 70
     1
 71
     1
 10
0.0
 20
0.0
 11
12.0
 21
9.0
 12
0.0
 22
0.0
 32
0.0
 14
0.0
 24
0.0
 34
0.0
 15
0.0
 25
0.0
 35
0.0
146
0.0
 13
0.0
 23
0.0
 33
0.0
 16
1.0
 26
0.0
 36
0.0
 17
0.0
 27
1.0
 37
0.0
 76
     0
330
73
  0
LAYOUT
  5
79
102
{ACAD_REACTORS
330
1A
102
}
330
1A
100
AcDbPlotSettings
  1

  2
\\ADSCCNDC1\hq601xrx1
  4

  6

 40
0.0
 41
0.0
 42
0.0
 43
0.0
 44
0.0
 45
0.0
 46
0.0
 47
0.0
 48
0.0
 49
0.0
140
0.0
141
0.0
142
1.0
143
1.0
 70
   688
 72
     0
 73
     0
 74
     5
  7

 75
    16
147
1.0
 76
     0
 77
     2
 78
   300
148
0.0
149
0.0
100
AcDbLayout
  1
布局2
 70
     1
 71
     2
 10
0.0
 20
0.0
 11
12.0
 21
9.0
 12
0.0
 22
0.0
 32
0.0
 14
0.0
 24
0.0
 34
0.0
 15
0.0
 25
0.0
 35
0.0
146
0.0
 13
0.0
 23
0.0
 33
0.0
 16
1.0
 26
0.0
 36
0.0
 17
0.0
 27
1.0
 37
0.0
 76
     0
330
78
  0
MATERIAL
  5
93
102
{ACAD_REACTORS
330
6B
102
}
330
6B
100
AcDbMaterial
  1
ByBlock
 94
       63
  0
MATERIAL
  5
92
102
{ACAD_REACTORS
330
6B
102
}
330
6B
100
AcDbMaterial
  1
ByLayer
 94
       63
  0
MATERIAL
  5
94
102
{ACAD_XDICTIONARY
360
10B
102
}
102
{ACAD_REACTORS
330
6B
102
}
330
6B
100
AcDbMaterial
  1
Global
 43
0.0208000000566244
 43
0.0
 43
0.0
 43
0.0
 43
0.0
 43
0.0208000000566244
 43
0.0
 43
0.0
 43
0.0
 43
0.0
 43
1.0
 43
0.0
 43
0.0
 43
0.0
 43
0.0
 43
1.0
 49
0.0208000000566244
 49
0.0
 49
0.0
 49
0.0
 49
0.0
 49
0.0208000000566244
 49
0.0
 49
0.0
 49
0.0
 49
0.0
 49
1.0
 49
0.0
 49
0.0
 49
0.0
 49
0.0
 49
1.0
142
0.0208000000566244
142
0.0
142
0.0
142
0.0
142
0.0
142
0.0208000000566244
142
0.0
142
0.0
142
0.0
142
0.0
142
1.0
142
0.0
142
0.0
142
0.0
142
0.0
142
1.0
144
0.0208000000566244
144
0.0
144
0.0
144
0.0
144
0.0
144
0.0208000000566244
144
0.0
144
0.0
144
0.0
144
0.0
144
1.0
144
0.0
144
0.0
144
0.0
144
0.0
144
1.0
 94
       63
1001
ACAD
1070
    -1
1070
     3
1070
     0
1000

1071
        0
1070
     0
  0
MLEADERSTYLE
  5
E0
102
{ACAD_REACTORS
330
D2
102
}
330
D2
100
AcDbMLeaderStyle
170
     2
171
     1
172
     0
 90
        2
 40
0.0
 41
0.0
173
     1
 91
-1056964608
340
14
 92
       -2
290
     1
 42
0.09
291
     1
 43
0.36
  3
Standard
 44
0.18
300

342
11
174
     1
178
     1
175
     1
176
     0
 93
-1056964608
 45
0.18
292
     0
297
     0
 46
0.18
 94
-1056964608
 47
1.0
 49
1.0
140
1.0
293
     1
141
0.0
294
     1
177
     0
142
1.0
295
     0
296
     1
143
0.125
1001
ACAD_MLEADERVER
1070
     2
  0
MLEADERSTYLE
  5
D3
102
{ACAD_REACTORS
330
D2
102
}
330
D2
100
AcDbMLeaderStyle
170
     2
171
     1
172
     0
 90
        2
 40
0.0
 41
0.0
173
     1
 91
-1056964608
340
14
 92
       -2
290
     1
 42
0.09
291
     1
 43
0.36
  3
Standard
 44
0.18
300

342
11
174
     1
178
     1
175
     1
176
     0
 93
-1056964608
 45
0.18
292
     0
297
     0
 46
0.18
 94
-1056964608
 47
1.0
 49
1.0
140
1.0
293
     1
141
0.0
294
     1
177
     0
142
1.0
295
     1
296
     0
143
0.125
1001
ACAD_MLEADERVER
1070
     2
  0
MLINESTYLE
  5
18
102
{ACAD_REACTORS
330
17
102
}
330
17
100
AcDbMlineStyle
  2
STANDARD
 70
     0
  3

 62
   256
 51
90.0
 52
90.0
 71
     2
 49
0.5
 62
   256
  6
BYLAYER
 49
-0.5
 62
   256
  6
BYLAYER
  0
ACDBPLACEHOLDER
  5
F
102
{ACAD_REACTORS
330
E
102
}
330
E
  0
SCALE
  5
B2
102
{ACAD_REACTORS
330
B1
102
}
330
B1
100
AcDbScale
 70
     0
300
1:1
140
1.0
141
1.0
290
     1
  0
SCALE
  5
124
102
{ACAD_REACTORS
330
B1
102
}
330
B1
100
AcDbScale
 70
     0
300
1:2
140
1.0
141
2.0
290
     0
  0
SCALE
  5
125
102
{ACAD_REACTORS
330
B1
102
}
330
B1
100
AcDbScale
 70
     0
300
1:4
140
1.0
141
4.0
290
     0
  0
SCALE
  5
126
102
{ACAD_REACTORS
330
B1
102
}
330
B1
100
AcDbScale
 70
     0
300
1:5
140
1.0
141
5.0
290
     0
  0
SCALE
  5
127
102
{ACAD_REACTORS
330
B1
102
}
330
B1
100
AcDbScale
 70
     0
300
1:8
140
1.0
141
8.0
290
     0
  0
SCALE
  5
128
102
{ACAD_REACTORS
330
B1
102
}
330
B1
100
AcDbScale
 70
     0
300
1:10
140
1.0
141
10.0
290
     0
  0
SCALE
  5
129
102
{ACAD_REACTORS
330
B1
102
}
330
B1
100
AcDbScale
 70
     0
300
1:16
140
1.0
141
16.0
290
     0
  0
SCALE
  5
12A
102
{ACAD_REACTORS
330
B1
102
}
330
B1
100
AcDbScale
 70
     0
300
1:20
140
1.0
141
20.0
290
     0
  0
SCALE
  5
12B
102
{ACAD_REACTORS
330
B1
102
}
330
B1
100
AcDbScale
 70
     0
300
1:30
140
1.0
141
30.0
290
     0
  0
SCALE
  5
12C
102
{ACAD_REACTORS
330
B1
102
}
330
B1
100
AcDbScale
 70
     0
300
1:40
140
1.0
141
40.0
290
     0
  0
SCALE
  5
12D
102
{ACAD_REACTORS
330
B1
102
}
330
B1
100
AcDbScale
 70
     0
300
1:50
140
1.0
141
50.0
290
     0
  0
SCALE
  5
12E
102
{ACAD_REACTORS
330
B1
102
}
330
B1
100
AcDbScale
 70
     0
300
1:100
140
1.0
141
100.0
290
     0
  0
SCALE
  5
12F
102
{ACAD_REACTORS
330
B1
102
}
330
B1
100
AcDbScale
 70
     0
300
2:1
140
2.0
141
1.0
290
     0
  0
SCALE
  5
130
102
{ACAD_REACTORS
330
B1
102
}
330
B1
100
AcDbScale
 70
     0
300
4:1
140
4.0
141
1.0
290
     0
  0
SCALE
  5
131
102
{ACAD_REACTORS
330
B1
102
}
330
B1
100
AcDbScale
 70
     0
300
8:1
140
8.0
141
1.0
290
     0
  0
SCALE
  5
132
102
{ACAD_REACTORS
330
B1
102
}
330
B1
100
AcDbScale
 70
     0
300
10:1
140
10.0
141
1.0
290
     0
  0
SCALE
  5
133
102
{ACAD_REACTORS
330
B1
102
}
330
B1
100
AcDbScale
 70
     0
300
100:1
140
100.0
141
1.0
290
     0
  0
SCALE
  5
134
102
{ACAD_REACTORS
330
B1
102
}
330
B1
100
AcDbScale
 70
     0
300
1/128" = 1'-0"
140
0.0078125
141
12.0
290
     0
  0
SCALE
  5
135
102
{ACAD_REACTORS
330
B1
102
}
330
B1
100
AcDbScale
 70
     0
300
1/64" = 1'-0"
140
0.015625
141
12.0
290
     0
  0
SCALE
  5
136
102
{ACAD_REACTORS
330
B1
102
}
330
B1
100
AcDbScale
 70
     0
300
1/32" = 1'-0"
140
0.03125
141
12.0
290
     0
  0
SCALE
  5
137
102
{ACAD_REACTORS
330
B1
102
}
330
B1
100
AcDbScale
 70
     0
300
1/16" = 1'-0"
140
0.0625
141
12.0
290
     0
  0
SCALE
  5
138
102
{ACAD_REACTORS
330
B1
102
}
330
B1
100
AcDbScale
 70
     0
300
3/32" = 1'-0"
140
0.09375
141
12.0
290
     0
  0
SCALE
  5
139
102
{ACAD_REACTORS
330
B1
102
}
330
B1
100
AcDbScale
 70
     0
300
1/8" = 1'-0"
140
0.125
141
12.0
290
     0
  0
SCALE
  5
13A
102
{ACAD_REACTORS
330
B1
102
}
330
B1
100
AcDbScale
 70
     0
300
3/16" = 1'-0"
140
0.1875
141
12.0
290
     0
  0
SCALE
  5
13B
102
{ACAD_REACTORS
330
B1
102
}
330
B1
100
AcDbScale
 70
     0
300
1/4" = 1'-0"
140
0.25
141
12.0
290
     0
  0
SCALE
  5
13C
102
{ACAD_REACTORS
330
B1
102
}
330
B1
100
AcDbScale
 70
     0
300
3/8" = 1'-0"
140
0.375
141
12.0
290
     0
  0
SCALE
  5
13D
102
{ACAD_REACTORS
330
B1
102
}
330
B1
100
AcDbScale
 70
     0
300
1/2" = 1'-0"
140
0.5
141
12.0
290
     0
  0
SCALE
  5
13E
102
{ACAD_REACTORS
330
B1
102
}
330
B1
100
AcDbScale
 70
     0
300
3/4" = 1'-0"
140
0.75
141
12.0
290
     0
  0
SCALE
  5
13F
102
{ACAD_REACTORS
330
B1
102
}
330
B1
100
AcDbScale
 70
     0
300
1" = 1'-0"
140
1.0
141
12.0
290
     0
  0
SCALE
  5
140
102
{ACAD_REACTORS
330
B1
102
}
330
B1
100
AcDbScale
 70
     0
300
1-1/2" = 1'-0"
140
1.5
141
12.0
290
     0
  0
SCALE
  5
141
102
{ACAD_REACTORS
330
B1
102
}
330
B1
100
AcDbScale
 70
     0
300
3" = 1'-0"
140
3.0
141
12.0
290
     0
  0
SCALE
  5
142
102
{ACAD_REACTORS
330
B1
102
}
330
B1
100
AcDbScale
 70
     0
300
6" = 1'-0"
140
6.0
141
12.0
290
     0
  0
SCALE
  5
143
102
{ACAD_REACTORS
330
B1
102
}
330
B1
100
AcDbScale
 70
     0
300
1'-0" = 1'-0"
140
12.0
141
12.0
290
     0
  0
TABLESTYLE
  5
A7
102
{ACAD_XDICTIONARY
360
FF
102
}
102
{ACAD_REACTORS
330
A6
102
}
330
A6
100
AcDbTableStyle
  3
Standard
 70
     0
 71
     0
 40
0.06
 41
0.06
280
     0
281
     0
  7
Standard
140
0.18
170
     2
 62
     0
 63
     7
283
     0
 90
      512
 91
        0
  1

274
    -2
284
     1
 64
     0
275
    -2
285
     1
 65
     0
276
    -2
286
     1
 66
     0
277
    -2
287
     1
 67
     0
278
    -2
288
     1
 68
     0
279
    -2
289
     1
 69
     0
  7
Standard
140
0.25
170
     5
 62
     0
 63
     7
283
     0
 90
      512
 91
        0
  1

274
    -2
284
     1
 64
     0
275
    -2
285
     1
 65
     0
276
    -2
286
     1
 66
     0
277
    -2
287
     1
 67
     0
278
    -2
288
     1
 68
     0
279
    -2
289
     1
 69
     0
  7
Standard
140
0.18
170
     5
 62
     0
 63
     7
283
     0
 90
      512
 91
        0
  1

274
    -2
284
     1
 64
     0
275
    -2
285
     1
 65
     0
276
    -2
286
     1
 66
     0
277
    -2
287
     1
 67
     0
278
    -2
288
     1
 68
     0
279
    -2
289
     1
 69
     0
  0
VISUALSTYLE
  5
9B
102
{ACAD_REACTORS
330
95
102
}
330
95
100
AcDbVisualStyle
  2
2dWireframe
 70
     4
 71
     0
 72
     2
 73
     1
 90
        0
 40
-0.6
 41
-30.0
 62
     5
 63
     7
421
 16777215
 74
     1
 91
        4
 64
     7
 65
   257
 75
     1
175
     1
 42
1.0
 92
        0
 66
   257
 43
1.0
 76
     1
 77
     6
 78
     2
 67
     7
 79
     5
170
     0
171
     0
290
     0
174
     0
 93
        1
 44
0.0
173
     0
291
     0
 45
0.0
  0
VISUALSTYLE
  5
9D
102
{ACAD_REACTORS
330
95
102
}
330
95
100
AcDbVisualStyle
  2
3D Hidden
 70
     6
 71
     1
 72
     2
 73
     2
 90
        0
 40
-0.6
 41
-30.0
 62
     5
 63
     7
421
 16777215
 74
     2
 91
        2
 64
     7
 65
   257
 75
     2
175
     1
 42
40.0
 92
        0
 66
   257
 43
1.0
 76
     1
 77
     6
 78
     2
 67
     7
 79
     3
170
     0
171
     0
290
     0
174
     0
 93
        1
 44
0.0
173
     0
291
     0
 45
0.0
  0
VISUALSTYLE
  5
9C
102
{ACAD_REACTORS
330
95
102
}
330
95
100
AcDbVisualStyle
  2
3dWireframe
 70
     5
 71
     0
 72
     2
 73
     1
 90
        0
 40
-0.6
 41
-30.0
 62
     5
 63
     7
421
 16777215
 74
     1
 91
        4
 64
     7
 65
   257
 75
     1
175
     1
 42
1.0
 92
        0
 66
   257
 43
1.0
 76
     1
 77
     6
 78
     2
 67
     7
 79
     5
170
     0
171
     0
290
     0
174
     0
 93
        1
 44
0.0
173
     0
291
     0
 45
0.0
  0
VISUALSTYLE
  5
9A
102
{ACAD_REACTORS
330
95
102
}
330
95
100
AcDbVisualStyle
  2
Basic
 70
     7
 71
     1
 72
     0
 73
     1
 90
        0
 40
-0.6
 41
-30.0
 62
     5
 63
     7
421
 16777215
 74
     0
 91
        4
 64
     7
 65
   257
 75
     1
175
     1
 42
1.0
 92
        8
 66
     7
 43
1.0
 76
     1
 77
     6
 78
     2
 67
     7
 79
     5
170
     0
171
     0
290
     0
174
     0
 93
        1
 44
0.0
173
     0
291
     1
 45
0.0
  0
VISUALSTYLE
  5
A1
102
{ACAD_REACTORS
330
95
102
}
330
95
100
AcDbVisualStyle
  2
Brighten
 70
    12
 71
     2
 72
     2
 73
     1
 90
        0
 40
-0.6
 41
-30.0
 62
     5
 63
     7
421
 16777215
 74
     1
 91
        4
 64
     7
 65
   257
 75
     1
175
     1
 42
1.0
 92
        8
 66
     7
 43
1.0
 76
     1
 77
     6
 78
     2
 67
     7
 79
     5
170
     0
171
     0
290
     0
174
     0
 93
        1
 44
50.0
173
     0
291
     1
 45
0.0
  0
VISUALSTYLE
  5
A5
102
{ACAD_REACTORS
330
95
102
}
330
95
100
AcDbVisualStyle
  2
ColorChange
 70
    16
 71
     2
 72
     2
 73
     3
 90
        0
 40
-0.6
 41
-30.0
 62
     5
 63
     8
421
  8421504
 74
     1
 91
        4
 64
     7
 65
   257
 75
     1
175
     1
 42
1.0
 92
        8
 66
     8
424
  8421504
 43
1.0
 76
     1
 77
     6
 78
     2
 67
     7
 79
     5
170
     0
171
     0
290
     0
174
     0
 93
        1
 44
0.0
173
     0
291
     1
 45
0.0
  0
VISUALSTYLE
  5
9E
102
{ACAD_REACTORS
330
95
102
}
330
95
100
AcDbVisualStyle
  2
Conceptual
 70
     9
 71
     3
 72
     2
 73
     1
 90
        0
 40
-0.6
 41
-30.0
 62
     5
 63
     7
421
 16777215
 74
     2
 91
        2
 64
     7
 65
   257
 75
     1
175
     1
 42
40.0
 92
        8
 66
     7
 43
1.0
 76
     1
 77
     6
 78
     2
 67
     7
 79
     3
170
     0
171
     0
290
     0
174
     0
 93
        1
 44
0.0
173
     0
291
     0
 45
0.0
  0
VISUALSTYLE
  5
A0
102
{ACAD_REACTORS
330
95
102
}
330
95
100
AcDbVisualStyle
  2
Dim
 70
    11
 71
     2
 72
     2
 73
     1
 90
        0
 40
-0.6
 41
-30.0
 62
     5
 63
     7
421
 16777215
 74
     1
 91
        4
 64
     7
 65
   257
 75
     1
175
     1
 42
1.0
 92
        8
 66
     7
 43
1.0
 76
     1
 77
     6
 78
     2
 67
     7
 79
     5
170
     0
171
     0
290
     0
174
     0
 93
        1
 44
-50.0
173
     0
291
     1
 45
0.0
  0
VISUALSTYLE
  5
A4
102
{ACAD_REACTORS
330
95
102
}
330
95
100
AcDbVisualStyle
  2
Facepattern
 70
    15
 71
     2
 72
     2
 73
     1
 90
        0
 40
-0.6
 41
-30.0
 62
     5
 63
     7
421
 16777215
 74
     1
 91
        4
 64
     7
 65
   257
 75
     1
175
     1
 42
1.0
 92
        8
 66
     7
 43
1.0
 76
     1
 77
     6
 78
     2
 67
     7
 79
     5
170
     0
171
     0
290
     0
174
     0
 93
        1
 44
0.0
173
     0
291
     1
 45
0.0
  0
VISUALSTYLE
  5
96
102
{ACAD_REACTORS
330
95
102
}
330
95
100
AcDbVisualStyle
  2
Flat
 70
     0
 71
     2
 72
     1
 73
     1
 90
        2
 40
-0.6
 41
30.0
 62
     5
 63
     7
421
 16777215
 74
     0
 91
        4
 64
     7
 65
   257
 75
     1
175
     1
 42
1.0
 92
        8
 66
     7
 43
1.0
 76
     1
 77
     6
 78
     2
 67
     7
 79
     5
170
     0
171
     0
290
     0
174
     0
 93
        1
 44
0.0
173
     0
291
     1
 45
0.0
  0
VISUALSTYLE
  5
97
102
{ACAD_REACTORS
330
95
102
}
330
95
100
AcDbVisualStyle
  2
FlatWithEdges
 70
     1
 71
     2
 72
     1
 73
     1
 90
        2
 40
-0.6
 41
30.0
 62
     5
 63
     7
421
 16777215
 74
     1
 91
        4
 64
     7
 65
   257
 75
     1
175
     1
 42
1.0
 92
        0
 66
   257
 43
1.0
 76
     1
 77
     6
 78
     2
 67
     7
 79
     5
170
     0
171
     0
290
     0
174
     0
 93
        1
 44
0.0
173
     0
291
     1
 45
0.0
  0
VISUALSTYLE
  5
98
102
{ACAD_REACTORS
330
95
102
}
330
95
100
AcDbVisualStyle
  2
Gouraud
 70
     2
 71
     2
 72
     2
 73
     1
 90
        2
 40
-0.6
 41
30.0
 62
     5
 63
     7
421
 16777215
 74
     0
 91
        4
 64
     7
 65
   257
 75
     1
175
     1
 42
1.0
 92
        0
 66
     7
 43
1.0
 76
     1
 77
     6
 78
     2
 67
     7
 79
     5
170
     0
171
     0
290
     0
174
     0
 93
        1
 44
0.0
173
     0
291
     1
 45
0.0
  0
VISUALSTYLE
  5
99
102
{ACAD_REACTORS
330
95
102
}
330
95
100
AcDbVisualStyle
  2
GouraudWithEdges
 70
     3
 71
     2
 72
     2
 73
     1
 90
        2
 40
-0.6
 41
30.0
 62
     5
 63
     7
421
 16777215
 74
     1
 91
        4
 64
     7
 65
   257
 75
     1
175
     1
 42
1.0
 92
        0
 66
   257
 43
1.0
 76
     1
 77
     6
 78
     2
 67
     7
 79
     5
170
     0
171
     0
290
     0
174
     0
 93
        1
 44
0.0
173
     0
291
     1
 45
0.0
  0
VISUALSTYLE
  5
A3
102
{ACAD_REACTORS
330
95
102
}
330
95
100
AcDbVisualStyle
  2
Linepattern
 70
    14
 71
     2
 72
     2
 73
     1
 90
        0
 40
-0.6
 41
-30.0
 62
     5
 63
     7
421
 16777215
 74
     1
 91
        4
 64
     7
 65
   257
 75
     7
175
     7
 42
1.0
 92
        8
 66
     7
 43
1.0
 76
     1
 77
     6
 78
     2
 67
     7
 79
     5
170
     0
171
     0
290
     0
174
     0
 93
        1
 44
0.0
173
     0
291
     1
 45
0.0
  0
VISUALSTYLE
  5
9F
102
{ACAD_REACTORS
330
95
102
}
330
95
100
AcDbVisualStyle
  2
Realistic
 70
     8
 71
     2
 72
     2
 73
     1
 90
        0
 40
-0.6
 41
-30.0
 62
     5
 63
     7
421
 16777215
 74
     1
 91
        0
 64
     7
 65
   257
 75
     1
175
     1
 42
1.0
 92
        8
 66
     8
424
  7895160
 43
1.0
 76
     1
 77
     6
 78
     2
 67
     7
 79
     5
170
     0
171
     0
290
     0
174
     0
 93
       13
 44
0.0
173
     0
291
     0
 45
0.0
  0
VISUALSTYLE
  5
A2
102
{ACAD_REACTORS
330
95
102
}
330
95
100
AcDbVisualStyle
  2
Thicken
 70
    13
 71
     2
 72
     2
 73
     1
 90
        0
 40
-0.6
 41
-30.0
 62
     5
 63
     7
421
 16777215
 74
     1
 91
        4
 64
     7
 65
   257
 75
     1
175
     1
 42
1.0
 92
       12
 66
     7
 43
1.0
 76
     1
 77
     6
 78
     2
 67
     7
 79
     5
170
     0
171
     0
290
     0
174
     0
 93
        1
 44
0.0
173
     0
291
     1
 45
0.0
  0
DICTIONARYVAR
  5
EB
102
{ACAD_REACTORS
330
59
102
}
330
59
100
DictionaryVariables
280
     0
  1
1:1
  0
DICTIONARYVAR
  5
EA
102
{ACAD_REACTORS
330
59
102
}
330
59
100
DictionaryVariables
280
     0
  1
STANDARD
  0
DICTIONARYVAR
  5
AB
102
{ACAD_REACTORS
330
59
102
}
330
59
100
DictionaryVariables
280
     0
  1
STANDARD
  0
DICTIONARYVAR
  5
5A
102
{ACAD_REACTORS
330
59
102
}
330
59
100
DictionaryVariables
280
     0
  1
2
  0
DICTIONARYVAR
  5
5E
102
{ACAD_REACTORS
330
59
102
}
330
59
100
DictionaryVariables
280
     0
  1
1
  0
DICTIONARY
  5
10B
330
94
100
AcDbDictionary
280
     1
281
     1
  3
BUMPTILE
360
10D
  3
DIFFUSETILE
360
10C
  3
OPACITYTILE
360
10E
  3
REFLECTIONTILE
360
10F
  0
DICTIONARY
  5
FF
330
A7
100
AcDbDictionary
280
     1
281
     1
  3
ACAD_ROUNDTRIP_2008_TABLESTYLE_CELLSTYLEMAP
360
FF1
  0
XRECORD
  5
10D
102
{ACAD_REACTORS
330
10B
102
}
330
10B
100
AcDbXrecord
280
     1
270
     1
271
     1
  0
XRECORD
  5
10C
102
{ACAD_REACTORS
330
10B
102
}
330
10B
100
AcDbXrecord
280
     1
270
     1
271
     1
  0
XRECORD
  5
10E
102
{ACAD_REACTORS
330
10B
102
}
330
10B
100
AcDbXrecord
280
     1
270
     1
271
     1
  0
XRECORD
  5
10F
102
{ACAD_REACTORS
330
10B
102
}
330
10B
100
AcDbXrecord
280
     1
270
     1
271
     1
  0
CELLSTYLEMAP
  5
FF1
102
{ACAD_REACTORS
330
FF
102
}
330
FF
100
AcDbCellStyleMap
 90
        3
300
CELLSTYLE
  1
TABLEFORMAT_BEGIN
 90
        5
170
     1
 91
        0
 92
    32768
 62
   257
 93
        1
300
CONTENTFORMAT
  1
CONTENTFORMAT_BEGIN
 90
        0
 91
        0
 92
      512
 93
        0
300

 40
0.0
140
1.0
 94
        5
 62
     0
340
11
144
0.25
309
CONTENTFORMAT_END
171
     1
301
MARGIN
  1
CELLMARGIN_BEGIN
 40
0.06
 40
0.06
 40
0.06
 40
0.06
 40
0.18
 40
0.18
309
CELLMARGIN_END
 94
        6
 95
        1
302
GRIDFORMAT
  1
GRIDFORMAT_BEGIN
 90
        0
 91
        1
 62
     0
 92
       -2
340
0
 93
        0
 40
0.045
309
GRIDFORMAT_END
 95
        2
302
GRIDFORMAT
  1
GRIDFORMAT_BEGIN
 90
        0
 91
        1
 62
     0
 92
       -2
340
0
 93
        0
 40
0.045
309
GRIDFORMAT_END
 95
        4
302
GRIDFORMAT
  1
GRIDFORMAT_BEGIN
 90
        0
 91
        1
 62
     0
 92
       -2
340
0
 93
        0
 40
0.045
309
GRIDFORMAT_END
 95
        8
302
GRIDFORMAT
  1
GRIDFORMAT_BEGIN
 90
        0
 91
        1
 62
     0
 92
       -2
340
0
 93
        0
 40
0.045
309
GRIDFORMAT_END
 95
       16
302
GRIDFORMAT
  1
GRIDFORMAT_BEGIN
 90
        0
 91
        1
 62
     0
 92
       -2
340
0
 93
        0
 40
0.045
309
GRIDFORMAT_END
 95
       32
302
GRIDFORMAT
  1
GRIDFORMAT_BEGIN
 90
        0
 91
        1
 62
     0
 92
       -2
340
0
 93
        0
 40
0.045
309
GRIDFORMAT_END
309
TABLEFORMAT_END
  1
CELLSTYLE_BEGIN
 90
        1
 91
        1
300
_TITLE
309
CELLSTYLE_END
300
CELLSTYLE
  1
TABLEFORMAT_BEGIN
 90
        5
170
     1
 91
        0
 92
        0
 62
   257
 93
        1
300
CONTENTFORMAT
  1
CONTENTFORMAT_BEGIN
 90
        0
 91
        0
 92
      512
 93
        0
300

 40
0.0
140
1.0
 94
        5
 62
     0
340
11
144
0.18
309
CONTENTFORMAT_END
171
     1
301
MARGIN
  1
CELLMARGIN_BEGIN
 40
0.06
 40
0.06
 40
0.06
 40
0.06
 40
0.18
 40
0.18
309
CELLMARGIN_END
 94
        6
 95
        1
302
GRIDFORMAT
  1
GRIDFORMAT_BEGIN
 90
        0
 91
        1
 62
     0
 92
       -2
340
0
 93
        0
 40
0.045
309
GRIDFORMAT_END
 95
        2
302
GRIDFORMAT
  1
GRIDFORMAT_BEGIN
 90
        0
 91
        1
 62
     0
 92
       -2
340
0
 93
        0
 40
0.045
309
GRIDFORMAT_END
 95
        4
302
GRIDFORMAT
  1
GRIDFORMAT_BEGIN
 90
        0
 91
        1
 62
     0
 92
       -2
340
0
 93
        0
 40
0.045
309
GRIDFORMAT_END
 95
        8
302
GRIDFORMAT
  1
GRIDFORMAT_BEGIN
 90
        0
 91
        1
 62
     0
 92
       -2
340
0
 93
        0
 40
0.045
309
GRIDFORMAT_END
 95
       16
302
GRIDFORMAT
  1
GRIDFORMAT_BEGIN
 90
        0
 91
        1
 62
     0
 92
       -2
340
0
 93
        0
 40
0.045
309
GRIDFORMAT_END
 95
       32
302
GRIDFORMAT
  1
GRIDFORMAT_BEGIN
 90
        0
 91
        1
 62
     0
 92
       -2
340
0
 93
        0
 40
0.045
309
GRIDFORMAT_END
309
TABLEFORMAT_END
  1
CELLSTYLE_BEGIN
 90
        2
 91
        1
300
_HEADER
309
CELLSTYLE_END
300
CELLSTYLE
  1
TABLEFORMAT_BEGIN
 90
        5
170
     1
 91
        0
 92
        0
 62
   257
 93
        1
300
CONTENTFORMAT
  1
CONTENTFORMAT_BEGIN
 90
        0
 91
        0
 92
      512
 93
        0
300

 40
0.0
140
1.0
 94
        2
 62
     0
340
11
144
0.18
309
CONTENTFORMAT_END
171
     1
301
MARGIN
  1
CELLMARGIN_BEGIN
 40
0.06
 40
0.06
 40
0.06
 40
0.06
 40
0.18
 40
0.18
309
CELLMARGIN_END
 94
        6
 95
        1
302
GRIDFORMAT
  1
GRIDFORMAT_BEGIN
 90
        0
 91
        1
 62
     0
 92
       -2
340
0
 93
        0
 40
0.045
309
GRIDFORMAT_END
 95
        2
302
GRIDFORMAT
  1
GRIDFORMAT_BEGIN
 90
        0
 91
        1
 62
     0
 92
       -2
340
0
 93
        0
 40
0.045
309
GRIDFORMAT_END
 95
        4
302
GRIDFORMAT
  1
GRIDFORMAT_BEGIN
 90
        0
 91
        1
 62
     0
 92
       -2
340
0
 93
        0
 40
0.045
309
GRIDFORMAT_END
 95
        8
302
GRIDFORMAT
  1
GRIDFORMAT_BEGIN
 90
        0
 91
        1
 62
     0
 92
       -2
340
0
 93
        0
 40
0.045
309
GRIDFORMAT_END
 95
       16
302
GRIDFORMAT
  1
GRIDFORMAT_BEGIN
 90
        0
 91
        1
 62
     0
 92
       -2
340
0
 93
        0
 40
0.045
309
GRIDFORMAT_END
 95
       32
302
GRIDFORMAT
  1
GRIDFORMAT_BEGIN
 90
        0
 91
        1
 62
     0
 92
       -2
340
0
 93
        0
 40
0.045
309
GRIDFORMAT_END
309
TABLEFORMAT_END
  1
CELLSTYLE_BEGIN
 90
        3
 91
        2
300
_DATA
309
CELLSTYLE_END
  0
ENDSEC
  0
EOF
